  0
SECTION
  2
HEADER
  9
$ACADVER
  1
AC1015
  9
$ACADMAINTVER
 70
     6
  9
$DWGCODEPAGE
  3
ANSI_1254
  9
$INSBASE
 10
0.0
 20
0.0
 30
0.0
  9
$EXTMIN
 10
0.0
 20
0.0
 30
0.0
  9
$EXTMAX
 10
279.4
 20
215.9
 30
0.0
  9
$LIMMIN
 10
0.0
 20
0.0
  9
$LIMMAX
 10
279.4
 20
215.9
  9
$ORTHOMODE
 70
     0
  9
$REGENMODE
 70
     1
  9
$FILLMODE
 70
     1
  9
$QTEXTMODE
 70
     0
  9
$MIRRTEXT
 70
     1
  9
$LTSCALE
 40
1.0
  9
$ATTMODE
 70
     1
  9
$TEXTSIZE
 40
3.5
  9
$TRACEWID
 40
1.0
  9
$TEXTSTYLE
  7
Standard
  9
$CLAYER
  8
0
  9
$CELTYPE
  6
ByLayer
  9
$CECOLOR
 62
   256
  9
$CELTSCALE
 40
1.0
  9
$DISPSILH
 70
     0
  9
$DIMSCALE
 40
1.0
  9
$DIMASZ
 40
3.5
  9
$DIMEXO
 40
1.0
  9
$DIMDLI
 40
3.75
  9
$DIMRND
 40
0.0
  9
$DIMDLE
 40
0.0
  9
$DIMEXE
 40
1.0
  9
$DIMTP
 40
0.0
  9
$DIMTM
 40
0.0
  9
$DIMTXT
 40
3.5
  9
$DIMCEN
 40
2.5
  9
$DIMTSZ
 40
0.0
  9
$DIMTOL
 70
     0
  9
$DIMLIM
 70
     0
  9
$DIMTIH
 70
     1
  9
$DIMTOH
 70
     1
  9
$DIMSE1
 70
     0
  9
$DIMSE2
 70
     0
  9
$DIMTAD
 70
     1
  9
$DIMZIN
 70
     0
  9
$DIMBLK
  1

  9
$DIMASO
 70
     1
  9
$DIMSHO
 70
     1
  9
$DIMPOST
  1

  9
$DIMAPOST
  1

  9
$DIMALT
 70
     0
  9
$DIMALTD
 70
     3
  9
$DIMALTF
 40
0.0393700787
  9
$DIMLFAC
 40
1.0
  9
$DIMTOFL
 70
     1
  9
$DIMTVP
 40
0.0
  9
$DIMTIX
 70
     0
  9
$DIMSOXD
 70
     0
  9
$DIMSAH
 70
     0
  9
$DIMBLK1
  1

  9
$DIMBLK2
  1

  9
$DIMSTYLE
  2
ISO-25
  9
$DIMCLRD
 70
     0
  9
$DIMCLRE
 70
     0
  9
$DIMCLRT
 70
     0
  9
$DIMTFAC
 40
1.0
  9
$DIMGAP
 40
1.524
  9
$DIMJUST
 70
     0
  9
$DIMSD1
 70
     0
  9
$DIMSD2
 70
     0
  9
$DIMTOLJ
 70
     0
  9
$DIMTZIN
 70
     0
  9
$DIMALTZ
 70
     0
  9
$DIMALTTZ
 70
     0
  9
$DIMUPT
 70
     0
  9
$DIMDEC
 70
     2
  9
$DIMTDEC
 70
     2
  9
$DIMALTU
 70
     2
  9
$DIMALTTD
 70
     3
  9
$DIMTXSTY
  7
Standard
  9
$DIMAUNIT
 70
     0
  9
$DIMADEC
 70
     2
  9
$DIMALTRND
 40
0.0
  9
$DIMAZIN
 70
     0
  9
$DIMDSEP
 70
    44
  9
$DIMATFIT
 70
     3
  9
$DIMFRAC
 70
     0
  9
$DIMLDRBLK
  1

  9
$DIMLUNIT
 70
     2
  9
$DIMLWD
 70
    -2
  9
$DIMLWE
 70
    -2
  9
$DIMTMOVE
 70
     0
  9
$LUNITS
 70
     2
  9
$LUPREC
 70
     2
  9
$SKETCHINC
 40
1.0
  9
$FILLETRAD
 40
10.0
  9
$AUNITS
 70
     0
  9
$AUPREC
 70
     2
  9
$MENU
  1
.
  9
$ELEVATION
 40
0.0
  9
$PELEVATION
 40
0.0
  9
$THICKNESS
 40
0.0
  9
$LIMCHECK
 70
     0
  9
$CHAMFERA
 40
0.0
  9
$CHAMFERB
 40
0.0
  9
$CHAMFERC
 40
0.0
  9
$CHAMFERD
 40
0.0
  9
$SKPOLY
 70
     0
  9
$TDCREATE
 40
2459935.710196088
  9
$TDUCREATE
 40
2459935.585196088
  9
$TDUPDATE
 40
2459935.710196273
  9
$TDUUPDATE
 40
2459935.585196273
  9
$TDINDWG
 40
0.0000000116
  9
$TDUSRTIMER
 40
0.0000000116
  9
$USRTIMER
 70
     1
  9
$ANGBASE
 50
0.0
  9
$ANGDIR
 70
     0
  9
$PDMODE
 70
     0
  9
$PDSIZE
 40
-1.0
  9
$PLINEWID
 40
0.0
  9
$SPLFRAME
 70
     0
  9
$SPLINETYPE
 70
     6
  9
$SPLINESEGS
 70
     8
  9
$HANDSEED
  5
10F
  9
$SURFTAB1
 70
     6
  9
$SURFTAB2
 70
     6
  9
$SURFTYPE
 70
     6
  9
$SURFU
 70
     6
  9
$SURFV
 70
     6
  9
$UCSBASE
  2

  9
$UCSNAME
  2

  9
$UCSORG
 10
0.0
 20
0.0
 30
0.0
  9
$UCSXDIR
 10
1.0
 20
0.0
 30
0.0
  9
$UCSYDIR
 10
0.0
 20
1.0
 30
0.0
  9
$UCSORTHOREF
  2

  9
$UCSORTHOVIEW
 70
     0
  9
$UCSORGTOP
 10
0.0
 20
0.0
 30
0.0
  9
$UCSORGBOTTOM
 10
0.0
 20
0.0
 30
0.0
  9
$UCSORGLEFT
 10
0.0
 20
0.0
 30
0.0
  9
$UCSORGRIGHT
 10
0.0
 20
0.0
 30
0.0
  9
$UCSORGFRONT
 10
0.0
 20
0.0
 30
0.0
  9
$UCSORGBACK
 10
0.0
 20
0.0
 30
0.0
  9
$PUCSBASE
  2

  9
$PUCSNAME
  2

  9
$PUCSORG
 10
0.0
 20
0.0
 30
0.0
  9
$PUCSXDIR
 10
1.0
 20
0.0
 30
0.0
  9
$PUCSYDIR
 10
0.0
 20
1.0
 30
0.0
  9
$PUCSORTHOREF
  2

  9
$PUCSORTHOVIEW
 70
     0
  9
$PUCSORGTOP
 10
0.0
 20
0.0
 30
0.0
  9
$PUCSORGBOTTOM
 10
0.0
 20
0.0
 30
0.0
  9
$PUCSORGLEFT
 10
0.0
 20
0.0
 30
0.0
  9
$PUCSORGRIGHT
 10
0.0
 20
0.0
 30
0.0
  9
$PUCSORGFRONT
 10
0.0
 20
0.0
 30
0.0
  9
$PUCSORGBACK
 10
0.0
 20
0.0
 30
0.0
  9
$USERI1
 70
     0
  9
$USERI2
 70
     0
  9
$USERI3
 70
     0
  9
$USERI4
 70
     0
  9
$USERI5
 70
     0
  9
$USERR1
 40
0.0
  9
$USERR2
 40
0.0
  9
$USERR3
 40
0.0
  9
$USERR4
 40
0.0
  9
$USERR5
 40
0.0
  9
$WORLDVIEW
 70
     1
  9
$SHADEDGE
 70
     3
  9
$SHADEDIF
 70
    70
  9
$TILEMODE
 70
     1
  9
$MAXACTVP
 70
    64
  9
$PINSBASE
 10
0.0
 20
0.0
 30
0.0
  9
$PLIMCHECK
 70
     0
  9
$PEXTMIN
 10
1.0000000000E+20
 20
1.0000000000E+20
 30
1.0000000000E+20
  9
$PEXTMAX
 10
-1.0000000000E+20
 20
-1.0000000000E+20
 30
-1.0000000000E+20
  9
$PLIMMIN
 10
0.0
 20
0.0
  9
$PLIMMAX
 10
420.0
 20
297.0
  9
$UNITMODE
 70
     0
  9
$VISRETAIN
 70
     1
  9
$PLINEGEN
 70
     0
  9
$PSLTSCALE
 70
     1
  9
$TREEDEPTH
 70
  3020
  9
$CMLSTYLE
  2
Standard
  9
$CMLJUST
 70
     0
  9
$CMLSCALE
 40
20.0
  9
$PROXYGRAPHICS
 70
     1
  9
$MEASUREMENT
 70
     1
  9
$CELWEIGHT
370
    -1
  9
$ENDCAPS
280
     0
  9
$JOINSTYLE
280
     0
  9
$LWDISPLAY
290
     1
  9
$INSUNITS
 70
     4
  9
$HYPERLINKBASE
  1

  9
$STYLESHEET
  1

  9
$XEDIT
290
     1
  9
$CEPSNTYPE
380
     0
  9
$PSTYLEMODE
290
     1
  9
$FINGERPRINTGUID
  2
{bf6908a2-097c-4eb0-9a4b-607ca94ea5dc}
  9
$VERSIONGUID
  2
{FAEB1C32-E019-11D5-929B-00C0DF256EC4}
  9
$EXTNAMES
290
     1
  9
$PSVPSCALE
 40
0.0
  9
$OLESTARTUP
290
     0
  0
ENDSEC
  0
SECTION
  2
CLASSES
  0
CLASS
  1
ACDBDICTIONARYWDFLT
  2
AcDbDictionaryWithDefault
  3
ObjectDBX Classes
 90
        0
280
     0
281
     0
  0
CLASS
  1
VISUALSTYLE
  2
AcDbVisualStyle
  3
ObjectDBX Classes
 90
     4095
280
     0
281
     0
  0
CLASS
  1
MATERIAL
  2
AcDbMaterial
  3
ObjectDBX Classes
 90
     1153
280
     0
281
     0
  0
CLASS
  1
SCALE
  2
AcDbScale
  3
ObjectDBX Classes
 90
     1153
280
     0
281
     0
  0
CLASS
  1
TABLESTYLE
  2
AcDbTableStyle
  3
ObjectDBX Classes
 90
     4095
280
     0
281
     0
  0
CLASS
  1
MLEADERSTYLE
  2
AcDbMLeaderStyle
  3
ACDB_MLEADERSTYLE_CLASS
 90
     4095
280
     0
281
     0
  0
CLASS
  1
SUN
  2
AcDbSun
  3
SCENEOE
 90
     1153
280
     0
281
     0
  0
CLASS
  1
ACDBPLACEHOLDER
  2
AcDbPlaceHolder
  3
ObjectDBX Classes
 90
        0
280
     0
281
     0
  0
CLASS
  1
LAYOUT
  2
AcDbLayout
  3
ObjectDBX Classes
 90
        0
280
     0
281
     0
  0
ENDSEC
  0
SECTION
  2
TABLES
  0
TABLE
  2
VPORT
  5
8
330
0
100
AcDbSymbolTable
 70
     1
  0
VPORT
  5
29
330
8
100
AcDbSymbolTableRecord
100
AcDbViewportTableRecord
  2
*Active
 70
     0
 10
0.0
 20
0.0
 11
1.0
 21
1.0
 12
139.7
 22
107.95
 13
0.0
 23
0.0
 14
10.0
 24
10.0
 15
10.0
 25
10.0
 16
0.0
 26
0.0
 36
1.0
 17
0.0
 27
0.0
 37
0.0
 40
215.9
 41
1.2941176471
 42
50.0
 43
0.0
 44
0.0
 50
0.0
 51
0.0
 71
     0
 72
  2000
 73
     1
 74
     3
 75
     0
 76
     0
 77
     0
 78
     0
281
     0
 65
     1
110
0.0
120
0.0
130
0.0
111
1.0
121
0.0
131
0.0
112
0.0
122
1.0
132
0.0
 79
     0
146
0.0
  0
ENDTAB
  0
TABLE
  2
LTYPE
  5
5
330
0
100
AcDbSymbolTable
 70
     6
  0
LTYPE
  5
14
330
5
100
AcDbSymbolTableRecord
100
AcDbLinetypeTableRecord
  2
ByBlock
 70
     0
  3

 72
    65
 73
     0
 40
0.0
  0
LTYPE
  5
15
330
5
100
AcDbSymbolTableRecord
100
AcDbLinetypeTableRecord
  2
ByLayer
 70
     0
  3

 72
    65
 73
     0
 40
0.0
  0
LTYPE
  5
16
330
5
100
AcDbSymbolTableRecord
100
AcDbLinetypeTableRecord
  2
Continuous
 70
     0
  3
Solid line
 72
    65
 73
     0
 40
0.0
  0
LTYPE
  5
6E
330
5
100
AcDbSymbolTableRecord
100
AcDbLinetypeTableRecord
  2
HIDDEN
 70
     0
  3
Hidden __ __ __ __ __ __ __ __ __ __ __ __ __ __
 72
    65
 73
     2
 40
1.905
 49
1.27
 74
     0
 49
-0.635
 74
     0
  0
LTYPE
  5
6F
330
5
100
AcDbSymbolTableRecord
100
AcDbLinetypeTableRecord
  2
PHANTOM
 70
     0
  3
Phantom ______  __  __  ______  __  __  ______
 72
    65
 73
     6
 40
12.7
 49
6.35
 74
     0
 49
-1.27
 74
     0
 49
1.27
 74
     0
 49
-1.27
 74
     0
 49
1.27
 74
     0
 49
-1.27
 74
     0
  0
LTYPE
  5
70
330
5
100
AcDbSymbolTableRecord
100
AcDbLinetypeTableRecord
  2
CENTER
 70
     0
  3
Center ____ _ ____ _ ____ _ ____ _ ____ _ ____
 72
    65
 73
     4
 40
10.16
 49
6.35
 74
     0
 49
-1.27
 74
     0
 49
1.27
 74
     0
 49
-1.27
 74
     0
  0
LTYPE
  5
71
330
5
100
AcDbSymbolTableRecord
100
AcDbLinetypeTableRecord
  2
CENTERX2
 70
     0
  3
Center (2x) ________  __  ________  __  _____
 72
    65
 73
     4
 40
20.32
 49
12.7
 74
     0
 49
-2.54
 74
     0
 49
2.54
 74
     0
 49
-2.54
 74
     0
  0
LTYPE
  5
72
330
5
100
AcDbSymbolTableRecord
100
AcDbLinetypeTableRecord
  2
DOT2
 70
     0
  3
Dot (.5x) ........................................
 72
    65
 73
     2
 40
0.635
 49
0.0
 74
     0
 49
-0.635
 74
     0
  0
ENDTAB
  0
TABLE
  2
LAYER
  5
2
330
0
100
AcDbSymbolTable
 70
    17
  0
LAYER
  5
10
330
2
100
AcDbSymbolTableRecord
100
AcDbLayerTableRecord
  2
0
 70
     0
 62
     7
  6
Continuous
370
    -3
390
F
  0
LAYER
  5
73
330
2
100
AcDbSymbolTableRecord
100
AcDbLayerTableRecord
  2
FORMAT
 70
     0
 62
     7
  6
Continuous
370
    -3
390
F
  0
LAYER
  5
74
330
2
100
AcDbSymbolTableRecord
100
AcDbLayerTableRecord
  2
YARDIMCI_GEOMETRI
 70
     0
 62
    -6
  6
Continuous
290
     0
370
    -3
390
F
  0
LAYER
  5
75
330
2
100
AcDbSymbolTableRecord
100
AcDbLayerTableRecord
  2
SAYFA_CERCEVESI
 70
     0
 62
     7
  6
Continuous
370
    25
390
F
  0
LAYER
  5
76
330
2
100
AcDbSymbolTableRecord
100
AcDbLayerTableRecord
  2
ANTET
 70
     0
 62
     7
  6
Continuous
370
    -3
390
F
  0
LAYER
  5
77
330
2
100
AcDbSymbolTableRecord
100
AcDbLayerTableRecord
  2
OLCU
 70
     0
 62
   150
  6
Continuous
370
    -3
390
F
  0
LAYER
  5
78
330
2
100
AcDbSymbolTableRecord
100
AcDbLayerTableRecord
  2
METIN
 70
     0
 62
    96
  6
Continuous
370
    -3
390
F
  0
LAYER
  5
79
330
2
100
AcDbSymbolTableRecord
100
AcDbLayerTableRecord
  2
BALON
 70
     0
 62
     5
  6
Continuous
370
    -3
390
F
  0
LAYER
  5
7A
330
2
100
AcDbSymbolTableRecord
100
AcDbLayerTableRecord
  2
VURGU
 70
     0
 62
     7
  6
Continuous
370
    -3
390
F
  0
LAYER
  5
7B
330
2
100
AcDbSymbolTableRecord
100
AcDbLayerTableRecord
  2
SILIK
 70
     0
 62
     7
  6
Continuous
370
    -3
390
F
  0
LAYER
  5
7C
330
2
100
AcDbSymbolTableRecord
100
AcDbLayerTableRecord
  2
MODEL
 70
     0
 62
     7
  6
Continuous
370
    -3
390
F
  0
LAYER
  5
7D
330
2
100
AcDbSymbolTableRecord
100
AcDbLayerTableRecord
  2
DETAYLANDıRMA
 70
     0
 62
   190
  6
Continuous
370
    -3
390
F
  0
LAYER
  5
7E
330
2
100
AcDbSymbolTableRecord
100
AcDbLayerTableRecord
  2
TOLERANS
 70
     0
 62
   230
  6
Continuous
370
    -3
390
F
  0
LAYER
  5
7F
330
2
100
AcDbSymbolTableRecord
100
AcDbLayerTableRecord
  2
MERKEZ_CIZGILERI
 70
     0
 62
    30
  6
Continuous
370
    -3
390
F
  0
LAYER
  5
80
330
2
100
AcDbSymbolTableRecord
100
AcDbLayerTableRecord
  2
KESIT-DETAY_CIZGILERI
 70
     0
 62
     7
  6
Continuous
370
    -3
390
F
  0
LAYER
  5
81
330
2
100
AcDbSymbolTableRecord
100
AcDbLayerTableRecord
  2
\U+041E\U+0421\U+0415\U+0412\U+042B\U+0415
 70
     0
 62
     7
  6
Continuous
370
    -3
390
F
  0
LAYER
  5
82
330
2
100
AcDbSymbolTableRecord
100
AcDbLayerTableRecord
  2
\U+0412\U+041E\U+0414\U+042F\U+041D\U+042B\U+0415_\U+0417\U+041D\U+0410\U+041A\U+0418
 70
     0
 62
    11
  6
Continuous
370
    -3
390
F
  0
ENDTAB
  0
TABLE
  2
STYLE
  5
3
330
0
100
AcDbSymbolTable
 70
     1
  0
STYLE
  5
11
330
3
100
AcDbSymbolTableRecord
100
AcDbTextStyleTableRecord
  2
Standard
 70
     0
 40
0.0
 41
1.0
 50
0.0
 71
     0
 42
3.5
  3
txt
  4

  0
ENDTAB
  0
TABLE
  2
VIEW
  5
6
330
0
100
AcDbSymbolTable
 70
     0
  0
ENDTAB
  0
TABLE
  2
UCS
  5
7
330
0
100
AcDbSymbolTable
 70
     0
  0
ENDTAB
  0
TABLE
  2
APPID
  5
9
330
0
100
AcDbSymbolTable
 70
     1
  0
APPID
  5
12
330
9
100
AcDbSymbolTableRecord
100
AcDbRegAppTableRecord
  2
ACAD
 70
     0
  0
ENDTAB
  0
TABLE
  2
DIMSTYLE
  5
A
330
0
100
AcDbSymbolTable
 70
     1
100
AcDbDimStyleTable
  0
DIMSTYLE
105
27
330
A
100
AcDbSymbolTableRecord
100
AcDbDimStyleTableRecord
  2
ISO-25
 70
     0
 41
2.5
 42
0.625
 43
3.75
 44
1.25
 73
     0
 74
     0
 77
     1
 78
     8
140
2.5
141
2.5
143
0.0393700787
147
0.625
171
     3
172
     1
178
     0
271
     2
272
     2
274
     3
278
    44
283
     0
284
     8
340
11
  0
ENDTAB
  0
TABLE
  2
BLOCK_RECORD
  5
1
330
0
100
AcDbSymbolTable
 70
     4
  0
BLOCK_RECORD
  5
1F
330
1
100
AcDbSymbolTableRecord
100
AcDbBlockTableRecord
  2
*Model_Space
340
22
  0
BLOCK_RECORD
  5
1B
330
1
100
AcDbSymbolTableRecord
100
AcDbBlockTableRecord
  2
*Paper_Space
340
1E
  0
BLOCK_RECORD
  5
23
330
1
100
AcDbSymbolTableRecord
100
AcDbBlockTableRecord
  2
*Paper_Space0
340
26
  0
BLOCK_RECORD
  5
8C
330
1
100
AcDbSymbolTableRecord
100
AcDbBlockTableRecord
  2
SW_CENTERMARKSYMBOL_0
340
0
102
{BLKREFS
331
97
102
}
  0
BLOCK_RECORD
  5
DE
330
1
100
AcDbSymbolTableRecord
100
AcDbBlockTableRecord
  2
SW_CENTERMARKSYMBOL_1
340
0
102
{BLKREFS
331
E9
102
}
  0
BLOCK_RECORD
  5
EA
330
1
100
AcDbSymbolTableRecord
100
AcDbBlockTableRecord
  2
SW_CENTERMARKSYMBOL_2
340
0
102
{BLKREFS
331
F5
102
}
  0
ENDTAB
  0
ENDSEC
  0
SECTION
  2
BLOCKS
  0
BLOCK
  5
20
330
1F
100
AcDbEntity
  8
0
100
AcDbBlockBegin
  2
*Model_Space
 70
     0
 10
0.0
 20
0.0
 30
0.0
  3
*Model_Space
  1

  0
ENDBLK
  5
21
330
1F
100
AcDbEntity
  8
0
100
AcDbBlockEnd
  0
BLOCK
  5
1C
330
1B
100
AcDbEntity
 67
     1
  8
0
100
AcDbBlockBegin
  2
*Paper_Space
 70
     0
 10
0.0
 20
0.0
 30
0.0
  3
*Paper_Space
  1

  0
ENDBLK
  5
1D
330
1B
100
AcDbEntity
 67
     1
  8
0
100
AcDbBlockEnd
  0
BLOCK
  5
24
330
23
100
AcDbEntity
  8
0
100
AcDbBlockBegin
  2
*Paper_Space0
 70
     0
 10
0.0
 20
0.0
 30
0.0
  3
*Paper_Space0
  1

  0
ENDBLK
  5
25
330
23
100
AcDbEntity
  8
0
100
AcDbBlockEnd
  0
BLOCK
  5
8D
330
8C
100
AcDbEntity
  8
0
100
AcDbBlockBegin
  2
SW_CENTERMARKSYMBOL_0
 70
     0
 10
0.0
 20
0.0
 30
0.0
  3
SW_CENTERMARKSYMBOL_0
  1

  0
LINE
  5
8F
330
8C
100
AcDbEntity
  8
FORMAT
 62
     0
100
AcDbLine
 10
0.0
 20
0.0
 30
0.0
 11
0.0
 21
2.5
 31
0.0
  0
LINE
  5
90
330
8C
100
AcDbEntity
  8
FORMAT
 62
     0
100
AcDbLine
 10
0.0
 20
0.0
 30
0.0
 11
-2.5
 21
0.0
 31
0.0
  0
LINE
  5
91
330
8C
100
AcDbEntity
  8
FORMAT
 62
     0
100
AcDbLine
 10
0.0
 20
0.0
 30
0.0
 11
0.0
 21
-2.5
 31
0.0
  0
LINE
  5
92
330
8C
100
AcDbEntity
  8
FORMAT
 62
     0
100
AcDbLine
 10
0.0
 20
0.0
 30
0.0
 11
2.5
 21
0.0
 31
0.0
  0
LINE
  5
93
330
8C
100
AcDbEntity
  8
FORMAT
 62
     0
100
AcDbLine
 10
0.0
 20
5.0
 30
0.0
 11
0.0
 21
57.85
 31
0.0
  0
LINE
  5
94
330
8C
100
AcDbEntity
  8
FORMAT
 62
     0
100
AcDbLine
 10
-5.0
 20
0.0
 30
0.0
 11
-57.85
 21
0.0
 31
0.0
  0
LINE
  5
95
330
8C
100
AcDbEntity
  8
FORMAT
 62
     0
100
AcDbLine
 10
0.0
 20
-5.0
 30
0.0
 11
0.0
 21
-57.85
 31
0.0
  0
LINE
  5
96
330
8C
100
AcDbEntity
  8
FORMAT
 62
     0
100
AcDbLine
 10
5.0
 20
0.0
 30
0.0
 11
57.85
 21
0.0
 31
0.0
  0
ENDBLK
  5
8E
330
8C
100
AcDbEntity
  8
0
100
AcDbBlockEnd
  0
BLOCK
  5
DF
330
DE
100
AcDbEntity
  8
0
100
AcDbBlockBegin
  2
SW_CENTERMARKSYMBOL_1
 70
     0
 10
0.0
 20
0.0
 30
0.0
  3
SW_CENTERMARKSYMBOL_1
  1

  0
LINE
  5
E1
330
DE
100
AcDbEntity
  8
FORMAT
 62
     0
100
AcDbLine
 10
0.0
 20
0.0
 30
0.0
 11
0.0
 21
2.5
 31
0.0
  0
LINE
  5
E2
330
DE
100
AcDbEntity
  8
FORMAT
 62
     0
100
AcDbLine
 10
0.0
 20
0.0
 30
0.0
 11
-2.5
 21
0.0
 31
0.0
  0
LINE
  5
E3
330
DE
100
AcDbEntity
  8
FORMAT
 62
     0
100
AcDbLine
 10
0.0
 20
0.0
 30
0.0
 11
0.0
 21
-2.5
 31
0.0
  0
LINE
  5
E4
330
DE
100
AcDbEntity
  8
FORMAT
 62
     0
100
AcDbLine
 10
0.0
 20
0.0
 30
0.0
 11
2.5
 21
0.0
 31
0.0
  0
LINE
  5
E5
330
DE
100
AcDbEntity
  8
FORMAT
 62
     0
100
AcDbLine
 10
0.0
 20
5.0
 30
0.0
 11
0.0
 21
9.5
 31
0.0
  0
LINE
  5
E6
330
DE
100
AcDbEntity
  8
FORMAT
 62
     0
100
AcDbLine
 10
-5.0
 20
0.0
 30
0.0
 11
-9.5
 21
0.0
 31
0.0
  0
LINE
  5
E7
330
DE
100
AcDbEntity
  8
FORMAT
 62
     0
100
AcDbLine
 10
0.0
 20
-5.0
 30
0.0
 11
0.0
 21
-9.5
 31
0.0
  0
LINE
  5
E8
330
DE
100
AcDbEntity
  8
FORMAT
 62
     0
100
AcDbLine
 10
5.0
 20
0.0
 30
0.0
 11
9.5
 21
0.0
 31
0.0
  0
ENDBLK
  5
E0
330
DE
100
AcDbEntity
  8
0
100
AcDbBlockEnd
  0
BLOCK
  5
EB
330
EA
100
AcDbEntity
  8
0
100
AcDbBlockBegin
  2
SW_CENTERMARKSYMBOL_2
 70
     0
 10
0.0
 20
0.0
 30
0.0
  3
SW_CENTERMARKSYMBOL_2
  1

  0
LINE
  5
ED
330
EA
100
AcDbEntity
  8
FORMAT
 62
     0
100
AcDbLine
 10
0.0
 20
0.0
 30
0.0
 11
0.0
 21
2.5
 31
0.0
  0
LINE
  5
EE
330
EA
100
AcDbEntity
  8
FORMAT
 62
     0
100
AcDbLine
 10
0.0
 20
0.0
 30
0.0
 11
-2.5
 21
0.0
 31
0.0
  0
LINE
  5
EF
330
EA
100
AcDbEntity
  8
FORMAT
 62
     0
100
AcDbLine
 10
0.0
 20
0.0
 30
0.0
 11
0.0
 21
-2.5
 31
0.0
  0
LINE
  5
F0
330
EA
100
AcDbEntity
  8
FORMAT
 62
     0
100
AcDbLine
 10
0.0
 20
0.0
 30
0.0
 11
2.5
 21
0.0
 31
0.0
  0
LINE
  5
F1
330
EA
100
AcDbEntity
  8
FORMAT
 62
     0
100
AcDbLine
 10
0.0
 20
5.0
 30
0.0
 11
0.0
 21
9.5
 31
0.0
  0
LINE
  5
F2
330
EA
100
AcDbEntity
  8
FORMAT
 62
     0
100
AcDbLine
 10
-5.0
 20
0.0
 30
0.0
 11
-9.5
 21
0.0
 31
0.0
  0
LINE
  5
F3
330
EA
100
AcDbEntity
  8
FORMAT
 62
     0
100
AcDbLine
 10
0.0
 20
-5.0
 30
0.0
 11
0.0
 21
-9.5
 31
0.0
  0
LINE
  5
F4
330
EA
100
AcDbEntity
  8
FORMAT
 62
     0
100
AcDbLine
 10
5.0
 20
0.0
 30
0.0
 11
9.5
 21
0.0
 31
0.0
  0
ENDBLK
  5
EC
330
EA
100
AcDbEntity
  8
0
100
AcDbBlockEnd
  0
ENDSEC
  0
SECTION
  2
ENTITIES
  0
LINE
  5
83
330
1F
100
AcDbEntity
  8
0
  6
Continuous
 62
     7
370
    25
100
AcDbLine
 10
137.6070913462
 20
163.1466640179
 30
0.0
 11
137.6070913462
 21
175.2449519231
 31
0.0
  0
LINE
  5
84
330
1F
100
AcDbEntity
  8
0
  6
Continuous
 62
     7
370
    25
100
AcDbLine
 10
123.6070913462
 20
175.2449519231
 30
0.0
 11
123.6070913462
 21
163.1443798522
 31
0.0
  0
CIRCLE
  5
85
330
1F
100
AcDbEntity
  8
0
  6
Continuous
 62
     7
370
    25
100
AcDbCircle
 10
130.6070913462
 20
95.8949519231
 30
0.0
 40
67.25
  0
ARC
  5
86
330
1F
100
AcDbEntity
  8
0
  6
Continuous
 62
     7
370
    25
100
AcDbCircle
 10
130.6070913462
 20
95.8949519231
 30
0.0
 40
68.24999999999991
100
AcDbArc
 50
95.8868421387
 51
180.0
  0
ARC
  5
87
330
1F
100
AcDbEntity
  8
0
  6
Continuous
 62
     7
370
    25
100
AcDbCircle
 10
130.6070913462
 20
95.8949519231
 30
0.0
 40
68.24999999999991
100
AcDbArc
 50
180.0
 51
84.1131578613
  0
SPLINE
  5
88
330
1F
100
AcDbEntity
  8
0
  6
Continuous
 62
     7
370
    25
100
AcDbSpline
210
0.0
220
0.0
230
1.0
 70
     8
 71
     3
 72
    21
 73
    17
 74
     0
 42
0.00000001
 43
0.00000001
 40
0.0
 40
0.0
 40
0.0
 40
0.0
 40
0.0715029495910411
 40
0.1430056334823973
 40
0.2145138189698109
 40
0.2860211315886328
 40
0.3574105272746856
 40
0.4288001431850882
 40
0.5000973172038645
 40
0.5713953768813145
 40
0.6428358941797281
 40
0.714276177422209
 40
0.7858187112296882
 40
0.8573599159245329
 40
0.9287160895711567
 40
1.0
 40
1.0
 40
1.0
 40
1.0
 10
135.5727860634868
 20
163.1854452403684
 30
0.0
 10
135.2815583291243
 20
163.1979747058367
 30
0.0
 10
134.6991039425801
 20
163.2230335902148
 30
0.0
 10
133.6730777590306
 20
163.2596781217894
 30
0.0
 10
132.568314592931
 20
163.2880300527149
 30
0.0
 10
131.4066197294036
 20
163.305176343382
 30
0.0
 10
130.2230647380337
 20
163.3074320295836
 30
0.0
 10
129.051177721256
 20
163.2957804443949
 30
0.0
 10
127.9249607046982
 20
163.2707136849829
 30
0.0
 10
126.8729100386773
 20
163.2368420356987
 30
0.0
 10
125.9279581120236
 20
163.1984778185925
 30
0.0
 10
125.1120658879613
 20
163.1617951580463
 30
0.0
 10
124.4537592939675
 20
163.1330057192915
 30
0.0
 10
123.9706576098472
 20
163.1174662997218
 30
0.0
 10
123.6655848677561
 20
163.1185979976189
 30
0.0
 10
123.6266496747371
 20
163.1357888037179
 30
0.0
 10
123.6071919407511
 20
163.1443798522306
 30
0.0
  0
SPLINE
  5
89
330
1F
100
AcDbEntity
  8
0
  6
Continuous
 62
     7
370
    25
100
AcDbSpline
210
0.0
220
0.0
230
1.0
 70
     8
 71
     3
 72
    12
 73
     8
 74
     0
 42
0.00000001
 43
0.00000001
 40
0.0
 40
0.0
 40
0.0
 40
0.0
 40
0.0725984230028699
 40
0.2882844480723337
 40
0.5030212210702932
 40
0.7177615961964516
 40
1.0
 40
1.0
 40
1.0
 40
1.0
 10
137.5844123967951
 20
163.1466640178591
 30
0.0
 10
137.5903992381235
 20
163.1425078275142
 30
0.0
 10
137.6141726642761
 20
163.1260038183345
 30
0.0
 10
137.4552858116712
 20
163.1171725648438
 30
0.0
 10
137.1018967134218
 20
163.1208354796861
 30
0.0
 10
136.5118371141584
 20
163.143206471146
 30
0.0
 10
135.9129175127214
 20
163.1701460361567
 30
0.0
 10
135.5727860634868
 20
163.1854452403684
 30
0.0
  0
CIRCLE
  5
8A
330
1F
100
AcDbEntity
  8
0
  6
Continuous
 62
     7
370
    25
100
AcDbCircle
 10
130.6070913462
 20
95.8949519231
 30
0.0
 40
55.34999999999999
  0
LINE
  5
8B
330
1F
100
AcDbEntity
  8
0
  6
Continuous
 62
     7
370
    25
100
AcDbLine
 10
137.6070913462
 20
175.2449519231
 30
0.0
 11
123.6070913462
 21
175.2449519231
 31
0.0
  0
INSERT
  5
97
330
1F
100
AcDbEntity
  8
FORMAT
 62
     7
100
AcDbBlockReference
  2
SW_CENTERMARKSYMBOL_0
 10
130.6070913462
 20
95.8949519231
 30
0.0
  0
ARC
  5
98
330
1F
100
AcDbEntity
  8
0
  6
Continuous
 62
     7
370
    25
100
AcDbCircle
 10
319.1241462828
 20
-1606.4800480769
 30
0.0
 40
1770.625000000002
100
AcDbArc
 50
91.7630626148
 51
91.9257272513
  0
ARC
  5
99
330
1F
100
AcDbEntity
  8
0
  6
Continuous
 62
     7
370
    25
100
AcDbCircle
 10
319.1241462828
 20
-1606.4800480769
 30
0.0
 40
1770.625000000002
100
AcDbArc
 50
90.0
 51
91.311271396
  0
ARC
  5
9A
330
1F
100
AcDbEntity
  8
0
  6
Continuous
 62
     7
370
    25
100
AcDbCircle
 10
319.1241462828
 20
1798.2699519231
 30
0.0
 40
1770.625000000002
100
AcDbArc
 50
268.0742727487
 51
270.0
  0
LINE
  5
9B
330
1F
100
AcDbEntity
  8
0
  6
Continuous
 62
     7
370
    25
100
AcDbLine
 10
319.1241462828
 20
27.6449519231
 30
0.0
 11
344.1241462828
 21
27.6449519231
 31
0.0
  0
LINE
  5
9C
330
1F
100
AcDbEntity
  8
0
  6
Continuous
 62
     7
370
    25
100
AcDbLine
 10
344.1241462828
 20
164.1449519231
 30
0.0
 11
319.1241462828
 21
164.1449519231
 31
0.0
  0
ARC
  5
9D
330
1F
100
AcDbEntity
  8
0
  6
Continuous
 62
     7
370
    25
100
AcDbCircle
 10
344.1241462828
 20
-1606.4800480769
 30
0.0
 40
1770.625000000002
100
AcDbArc
 50
88.6886037844
 51
90.0
  0
ARC
  5
9E
330
1F
100
AcDbEntity
  8
0
  6
Continuous
 62
     7
370
    25
100
AcDbCircle
 10
344.1241462828
 20
-1606.4800480769
 30
0.0
 40
1770.625000000002
100
AcDbArc
 50
88.0742727487
 51
88.236826265
  0
ARC
  5
9F
330
1F
100
AcDbEntity
  8
0
  6
Continuous
 62
     7
370
    25
100
AcDbCircle
 10
344.1241462828
 20
1798.2699519231
 30
0.0
 40
1770.625000000002
100
AcDbArc
 50
270.0
 51
271.9257272513
  0
LINE
  5
A0
330
1F
100
AcDbEntity
  8
0
  6
Continuous
 62
     7
370
    25
100
AcDbLine
 10
278.6241462828
 20
163.6793233966
 30
0.0
 11
278.6241462828
 21
175.2449519231
 31
0.0
  0
LINE
  5
A1
330
1F
100
AcDbEntity
  8
0
  6
Continuous
 62
     7
370
    25
100
AcDbLine
 10
264.6241462828
 20
175.2449519231
 30
0.0
 11
264.6241462828
 21
163.3042177244
 31
0.0
  0
LINE
  5
A2
330
1F
100
AcDbEntity
  8
0
  6
Continuous
 62
     7
370
    25
100
AcDbLine
 10
398.6241462828
 20
163.3044825305
 30
0.0
 11
398.6241462828
 21
175.2449519231
 31
0.0
  0
LINE
  5
A3
330
1F
100
AcDbEntity
  8
0
  6
Continuous
 62
     7
370
    25
100
AcDbLine
 10
384.6241462828
 20
175.2449519231
 30
0.0
 11
384.6241462828
 21
163.6788470693
 31
0.0
  0
LINE
  5
A4
330
1F
100
AcDbEntity
  8
0
  6
Continuous
 62
     7
370
    25
100
AcDbLine
 10
259.6241462828
 20
95.8949519231
 30
0.0
 11
259.6241462828
 21
163.1449519231
 31
0.0
  0
LINE
  5
A5
330
1F
100
AcDbEntity
  8
0
  6
Continuous
 62
     7
370
    25
100
AcDbLine
 10
259.6241462828
 20
28.6449519231
 30
0.0
 11
259.6241462828
 21
95.8949519231
 31
0.0
  0
SPLINE
  5
A6
330
1F
100
AcDbEntity
  8
0
  6
Continuous
 62
     7
370
    25
100
AcDbSpline
210
0.0
220
0.0
230
1.0
 70
     8
 71
     3
 72
    27
 73
    23
 74
     0
 42
0.00000001
 43
0.00000001
 40
0.0
 40
0.0
 40
0.0
 40
0.0
 40
0.0143282055910304
 40
0.0685129225424135
 40
0.1210021113282448
 40
0.1750000515459433
 40
0.2277411013962376
 40
0.2819922764018635
 40
0.3350655180882787
 40
0.38967700931902
 40
0.4427452615654709
 40
0.4973685846159904
 40
0.5501550480911803
 40
0.6044814753563063
 40
0.6571232259563577
 40
0.7112842322080952
 40
0.7640626020156187
 40
0.8183627372933995
 40
0.8712868587398487
 40
0.9257487652074587
 40
0.978612607960945
 40
1.0
 40
1.0
 40
1.0
 40
1.0
 10
278.6051673569893
 20
163.6793185011787
 30
0.0
 10
278.6107621234614
 20
163.680022652755
 30
0.0
 10
278.6375145175074
 20
163.6833896816615
 30
0.0
 10
278.4880375441708
 20
163.6645194615767
 30
0.0
 10
278.1529785186207
 20
163.6234086469161
 30
0.0
 10
277.6246625063764
 20
163.5617278940392
 30
0.0
 10
276.9263072976405
 20
163.4863257943751
 30
0.0
 10
276.0822849401227
 20
163.4043896838287
 30
0.0
 10
275.1022770469726
 20
163.3220292733434
 30
0.0
 10
274.0299048481091
 20
163.2476493246797
 30
0.0
 10
272.8780875169149
 20
163.1861827223801
 30
0.0
 10
271.7023055009807
 20
163.14316208599
 30
0.0
 10
270.5151432245337
 20
163.1199795035115
 30
0.0
 10
269.372958851103
 20
163.1169020569516
 30
0.0
 10
268.2853814536247
 20
163.1314828288702
 30
0.0
 10
267.3015907034886
 20
163.1593968358137
 30
0.0
 10
266.4303476929078
 20
163.195760255814
 30
0.0
 10
265.7125064258736
 20
163.2339473395219
 30
0.0
 10
265.1522379558357
 20
163.268911451182
 30
0.0
 10
264.7922703774776
 20
163.2937376542757
 30
0.0
 10
264.6208195606521
 20
163.3062363342754
 30
0.0
 10
264.6423603807118
 20
163.3046685990938
 30
0.0
 10
264.648565017776
 20
163.3042170272507
 30
0.0
  0
LINE
  5
A7
330
1F
100
AcDbEntity
  8
0
  6
Continuous
 62
     7
370
    25
100
AcDbLine
 10
403.6241462828
 20
95.8949519231
 30
0.0
 11
403.6241462828
 21
163.1449519231
 31
0.0
  0
LINE
  5
A8
330
1F
100
AcDbEntity
  8
0
  6
Continuous
 62
     7
370
    25
100
AcDbLine
 10
403.6241462828
 20
28.6449519231
 30
0.0
 11
403.6241462828
 21
95.8949519231
 31
0.0
  0
SPLINE
  5
A9
330
1F
100
AcDbEntity
  8
0
  6
Continuous
 62
     7
370
    25
100
AcDbSpline
210
0.0
220
0.0
230
1.0
 70
     8
 71
     3
 72
    27
 73
    23
 74
     0
 42
0.00000001
 43
0.00000001
 40
0.0
 40
0.0
 40
0.0
 40
0.0
 40
0.0166396164315972
 40
0.0709906418685264
 40
0.1237427192004924
 40
0.1780188445162439
 40
0.2308759432509874
 40
0.2852613503396181
 40
0.338187674204117
 40
0.3926563175017336
 40
0.4454444960189575
 40
0.4997724763281565
 40
0.5524153421672178
 40
0.6065783277351717
 40
0.6593512295298078
 40
0.7136382245512488
 40
0.7666948388898284
 40
0.8212872782571089
 40
0.8743714172573054
 40
0.9290131606547554
 40
0.9817725561082163
 40
1.0
 40
1.0
 40
1.0
 40
1.0
 10
398.6033357564798
 20
163.3044805783689
 30
0.0
 10
398.6092033131655
 20
163.3049076629235
 30
0.0
 10
398.6342364392016
 20
163.3067297606137
 30
0.0
 10
398.4768645352703
 20
163.2952281776914
 30
0.0
 10
398.1300650514176
 20
163.2711931105091
 30
0.0
 10
397.589604321378
 20
163.2370984202576
 30
0.0
 10
396.8782486187432
 20
163.1986934947419
 30
0.0
 10
396.0232465319683
 20
163.1621264101231
 30
0.0
 10
395.0347040388661
 20
163.1330306700989
 30
0.0
 10
393.9587124890489
 20
163.1173885948367
 30
0.0
 10
392.8072610063042
 20
163.1192111369301
 30
0.0
 10
391.6351727780349
 20
163.1407399974715
 30
0.0
 10
390.4538346239831
 20
163.1825122946423
 30
0.0
 10
389.3168819308064
 20
163.2416972375821
 30
0.0
 10
388.2346169070639
 20
163.3152773785602
 30
0.0
 10
387.2549607751274
 20
163.3963587608017
 30
0.0
 10
386.3885494267464
 20
163.4794652231938
 30
0.0
 10
385.6771519732297
 20
163.5556981759742
 30
0.0
 10
385.1250955082303
 20
163.6198072521719
 30
0.0
 10
384.7770444698841
 20
163.6624237648194
 30
0.0
 10
384.6160701035615
 20
163.682723176111
 30
0.0
 10
384.6405886082281
 20
163.6796369693726
 30
0.0
 10
384.6468842775697
 20
163.6788445174099
 30
0.0
  0
LINE
  5
AA
330
1F
100
AcDbEntity
  8
0
  6
Continuous
 62
     7
370
    25
100
AcDbLine
 10
278.6241462828
 20
175.2449519231
 30
0.0
 11
264.6241462828
 21
175.2449519231
 31
0.0
  0
LINE
  5
AB
330
1F
100
AcDbEntity
  8
0
  6
Continuous
 62
     7
370
    25
100
AcDbLine
 10
398.6241462828
 20
175.2449519231
 30
0.0
 11
384.6241462828
 21
175.2449519231
 31
0.0
  0
LINE
  5
AC
330
1F
100
AcDbEntity
  8
0
  6
Continuous
 62
     1
370
    25
100
AcDbLine
 10
319.1241462828
 20
95.8949519231
 30
0.0
 11
319.1241462828
 21
164.1449519231
 31
0.0
  0
LINE
  5
AD
330
1F
100
AcDbEntity
  8
0
  6
Continuous
 62
     1
370
    25
100
AcDbLine
 10
319.1241462828
 20
27.6449519231
 30
0.0
 11
319.1241462828
 21
95.8949519231
 31
0.0
  0
LINE
  5
AE
330
1F
100
AcDbEntity
  8
0
  6
Continuous
 62
     1
370
    25
100
AcDbLine
 10
344.1241462828
 20
95.8949519231
 30
0.0
 11
344.1241462828
 21
164.1449519231
 31
0.0
  0
LINE
  5
AF
330
1F
100
AcDbEntity
  8
0
  6
Continuous
 62
     1
370
    25
100
AcDbLine
 10
344.1241462828
 20
27.6449519231
 30
0.0
 11
344.1241462828
 21
95.8949519231
 31
0.0
  0
ARC
  5
B0
330
1F
100
AcDbEntity
  8
0
  6
Continuous
 62
     7
370
    25
100
AcDbCircle
 10
1832.9820913462
 20
276.715075014
 30
0.0
 40
1770.625000000002
100
AcDbArc
 50
180.0
 51
181.9257272513
  0
ARC
  5
B1
330
1F
100
AcDbEntity
  8
0
  6
Continuous
 62
     7
370
    25
100
AcDbCircle
 10
-1571.7679086538
 20
276.715075014
 30
0.0
 40
1770.625000000002
100
AcDbArc
 50
358.0742727487
 51
0.0
  0
LINE
  5
B2
330
1F
100
AcDbEntity
  8
0
  6
Continuous
 62
     7
370
    25
100
AcDbLine
 10
198.8570913462
 20
276.715075014
 30
0.0
 11
198.8570913462
 21
301.715075014
 31
0.0
  0
LINE
  5
B3
330
1F
100
AcDbEntity
  8
0
  6
Continuous
 62
     7
370
    25
100
AcDbLine
 10
62.3570913462
 20
301.715075014
 30
0.0
 11
62.3570913462
 21
276.715075014
 31
0.0
  0
ARC
  5
B4
330
1F
100
AcDbEntity
  8
0
  6
Continuous
 62
     7
370
    25
100
AcDbCircle
 10
1832.9820913462
 20
301.715075014
 30
0.0
 40
1770.625000000002
100
AcDbArc
 50
178.0742727487
 51
180.0
  0
ARC
  5
B5
330
1F
100
AcDbEntity
  8
0
  6
Continuous
 62
     7
370
    25
100
AcDbCircle
 10
-1571.7679086538
 20
301.715075014
 30
0.0
 40
1770.625000000002
100
AcDbArc
 50
0.0
 51
1.9257272513
  0
LINE
  5
B6
330
1F
100
AcDbEntity
  8
0
  6
Continuous
 62
     7
370
    25
100
AcDbLine
 10
197.8570913462
 20
217.215075014
 30
0.0
 11
63.3570913462
 21
217.215075014
 31
0.0
  0
LINE
  5
B7
330
1F
100
AcDbEntity
  8
0
  6
Continuous
 62
     7
370
    25
100
AcDbLine
 10
197.8570913462
 20
361.215075014
 30
0.0
 11
63.3570913462
 21
361.215075014
 31
0.0
  0
LINE
  5
B8
330
1F
100
AcDbEntity
  8
0
  6
Continuous
 62
     1
370
    25
100
AcDbLine
 10
198.8570913462
 20
276.715075014
 30
0.0
 11
62.3570913462
 21
276.715075014
 31
0.0
  0
LINE
  5
B9
330
1F
100
AcDbEntity
  8
0
  6
Continuous
 62
     1
370
    25
100
AcDbLine
 10
198.8570913462
 20
301.715075014
 30
0.0
 11
62.3570913462
 21
301.715075014
 31
0.0
  0
ARC
  5
BA
330
1F
100
AcDbEntity
  8
0
  6
Continuous
 62
     7
370
    25
100
AcDbCircle
 10
-80.6436930429
 20
1798.2699519231
 30
0.0
 40
1770.625000000002
100
AcDbArc
 50
270.0
 51
271.9257272513
  0
ARC
  5
BB
330
1F
100
AcDbEntity
  8
0
  6
Continuous
 62
     7
370
    25
100
AcDbCircle
 10
-80.6436930429
 20
-1606.4800480769
 30
0.0
 40
1770.625000000002
100
AcDbArc
 50
88.6887258878
 51
90.0
  0
ARC
  5
BC
330
1F
100
AcDbEntity
  8
0
  6
Continuous
 62
     7
370
    25
100
AcDbCircle
 10
-80.6436930429
 20
-1606.4800480769
 30
0.0
 40
1770.625000000002
100
AcDbArc
 50
88.0742727487
 51
88.2369426982
  0
LINE
  5
BD
330
1F
100
AcDbEntity
  8
0
  6
Continuous
 62
     7
370
    25
100
AcDbLine
 10
-80.6436930429
 20
164.1449519231
 30
0.0
 11
-105.6436930429
 21
164.1449519231
 31
0.0
  0
LINE
  5
BE
330
1F
100
AcDbEntity
  8
0
  6
Continuous
 62
     7
370
    25
100
AcDbLine
 10
-105.6436930429
 20
27.6449519231
 30
0.0
 11
-80.6436930429
 21
27.6449519231
 31
0.0
  0
ARC
  5
BF
330
1F
100
AcDbEntity
  8
0
  6
Continuous
 62
     7
370
    25
100
AcDbCircle
 10
-105.6436930429
 20
1798.2699519231
 30
0.0
 40
1770.625000000002
100
AcDbArc
 50
268.0742727487
 51
270.0
  0
ARC
  5
C0
330
1F
100
AcDbEntity
  8
0
  6
Continuous
 62
     7
370
    25
100
AcDbCircle
 10
-105.6436930429
 20
-1606.4800480769
 30
0.0
 40
1770.625000000002
100
AcDbArc
 50
91.7631792383
 51
91.9257272513
  0
ARC
  5
C1
330
1F
100
AcDbEntity
  8
0
  6
Continuous
 62
     7
370
    25
100
AcDbCircle
 10
-105.6436930429
 20
-1606.4800480769
 30
0.0
 40
1770.625000000002
100
AcDbArc
 50
90.0
 51
91.3113935086
  0
LINE
  5
C2
330
1F
100
AcDbEntity
  8
0
  6
Continuous
 62
     7
370
    25
100
AcDbLine
 10
-26.1436930429
 20
163.3042177244
 30
0.0
 11
-26.1436930429
 21
175.2449519231
 31
0.0
  0
LINE
  5
C3
330
1F
100
AcDbEntity
  8
0
  6
Continuous
 62
     7
370
    25
100
AcDbLine
 10
-40.1436930429
 20
175.2449519231
 30
0.0
 11
-40.1436930429
 21
163.6793233966
 31
0.0
  0
LINE
  5
C4
330
1F
100
AcDbEntity
  8
0
  6
Continuous
 62
     7
370
    25
100
AcDbLine
 10
-146.1436930429
 20
163.6788470693
 30
0.0
 11
-146.1436930429
 21
175.2449519231
 31
0.0
  0
LINE
  5
C5
330
1F
100
AcDbEntity
  8
0
  6
Continuous
 62
     7
370
    25
100
AcDbLine
 10
-160.1436930429
 20
175.2449519231
 30
0.0
 11
-160.1436930429
 21
163.3044825305
 31
0.0
  0
LINE
  5
C6
330
1F
100
AcDbEntity
  8
0
  6
Continuous
 62
     7
370
    25
100
AcDbLine
 10
-21.1436930429
 20
163.1449519231
 30
0.0
 11
-21.1436930429
 21
28.6449519231
 31
0.0
  0
SPLINE
  5
C7
330
1F
100
AcDbEntity
  8
0
  6
Continuous
 62
     7
370
    25
100
AcDbSpline
210
0.0
220
0.0
230
1.0
 70
     8
 71
     3
 72
    12
 73
     8
 74
     0
 42
0.00000001
 43
0.00000001
 40
0.0
 40
0.0
 40
0.0
 40
0.0
 40
0.2090918499701993
 40
0.4242180683014563
 40
0.6333191480181786
 40
0.8485435552247744
 40
0.9999999999999999
 40
0.9999999999999999
 40
0.9999999999999999
 40
0.9999999999999999
 10
-38.04606726528822
 20
163.4479301507387
 30
0.0
 10
-38.30937972066405
 20
163.4743264598969
 30
0.0
 10
-38.84360380063258
 20
163.5278808728641
 30
0.0
 10
-39.44650656770708
 20
163.5966917129099
 30
0.0
 10
-39.87911515520124
 20
163.6485043148429
 30
0.0
 10
-40.11671962878886
 20
163.6783019574857
 30
0.0
 10
-40.1223826185965
 20
163.6790220305708
 30
0.0
 10
-40.12472169983958
 20
163.6793194546355
 30
0.0
  0
SPLINE
  5
C8
330
1F
100
AcDbEntity
  8
0
  6
Continuous
 62
     7
370
    25
100
AcDbSpline
210
0.0
220
0.0
230
1.0
 70
     8
 71
     3
 72
    21
 73
    17
 74
     0
 42
0.00000001
 43
0.00000001
 40
0.0
 40
0.0
 40
0.0
 40
0.0
 40
0.0442082652397681
 40
0.1148509399245526
 40
0.1875386716531607
 40
0.2582548169436664
 40
0.3310125200673837
 40
0.4018821750089666
 40
0.4748113178958256
 40
0.5455905657267036
 40
0.6184368317538349
 40
0.6889701620101346
 40
0.7615487249710241
 40
0.8321087763371693
 40
0.9046947241871778
 40
1.0
 40
1.0
 40
1.0
 40
1.0
 10
-26.16811290457409
 20
163.3042169453776
 30
0.0
 10
-26.16579089088092
 20
163.304383456763
 30
0.0
 10
-26.15975841134951
 20
163.3048160453074
 30
0.0
 10
-26.37333532470568
 20
163.2893602889508
 30
0.0
 10
-26.77552423560962
 20
163.2620998666321
 30
0.0
 10
-27.37096099348928
 20
163.2259830736739
 30
0.0
 10
-28.12191670455386
 20
163.1877050592659
 30
0.0
 10
-29.02401565671156
 20
163.1524801656804
 30
0.0
 10
-30.03481882410132
 20
163.1269495133314
 30
0.0
 10
-31.14334680860744
 20
163.1159474191265
 30
0.0
 10
-32.29664065291448
 20
163.1233504868163
 30
0.0
 10
-33.48255411698209
 20
163.1510177321258
 30
0.0
 10
-34.64711610222438
 20
163.1979129890609
 30
0.0
 10
-35.77614609030025
 20
163.2621146318465
 30
0.0
 10
-36.95399821587547
 20
163.3469589219834
 30
0.0
 10
-37.65062149694295
 20
163.4113677693057
 30
0.0
 10
-38.04606726528821
 20
163.4479301507387
 30
0.0
  0
LINE
  5
C9
330
1F
100
AcDbEntity
  8
0
  6
Continuous
 62
     7
370
    25
100
AcDbLine
 10
-165.1436930429
 20
163.1449519231
 30
0.0
 11
-165.1436930429
 21
28.6449519231
 31
0.0
  0
SPLINE
  5
CA
330
1F
100
AcDbEntity
  8
0
  6
Continuous
 62
     7
370
    25
100
AcDbSpline
210
0.0
220
0.0
230
1.0
 70
     8
 71
     3
 72
    12
 73
     8
 74
     0
 42
0.00000001
 43
0.00000001
 40
0.0
 40
0.0
 40
0.0
 40
0.0
 40
0.2108820313316435
 40
0.4278725151568748
 40
0.638756523819371
 40
0.8557749750616112
 40
1.0
 40
1.0
 40
1.0
 40
1.0
 10
-158.0774417165316
 20
163.1854452403686
 30
0.0
 10
-158.3393385789342
 20
163.1978036598341
 30
0.0
 10
-158.8707184623711
 20
163.222878475297
 30
0.0
 10
-159.4675111289494
 20
163.2593948515649
 30
0.0
 10
-159.8922920202032
 20
163.2877711671636
 30
0.0
 10
-160.1208730102981
 20
163.3043276013551
 30
0.0
 10
-160.1223114241582
 20
163.3044370950991
 30
0.0
 10
-160.1228857051862
 20
163.3044808100421
 30
0.0
  0
SPLINE
  5
CB
330
1F
100
AcDbEntity
  8
0
  6
Continuous
 62
     7
370
    25
100
AcDbSpline
210
0.0
220
0.0
230
1.0
 70
     8
 71
     3
 72
    21
 73
    17
 74
     0
 42
0.00000001
 43
0.00000001
 40
0.0
 40
0.0
 40
0.0
 40
0.0
 40
0.0481613374363017
 40
0.1182470554444764
 40
0.1903560914417682
 40
0.2606297240673968
 40
0.3329138051087615
 40
0.4036704046291404
 40
0.4764683537710668
 40
0.5473837098569219
 40
0.6203730612138466
 40
0.6909721740587593
 40
0.7636368004166498
 40
0.833936373488818
 40
0.9062704645750033
 40
1.0
 40
1.0
 40
1.0
 40
1.0
 10
-146.1664352373617
 20
163.6788439892983
 30
0.0
 10
-146.1661135185141
 20
163.6788804900523
 30
0.0
 10
-146.1653236254497
 20
163.6789701077187
 30
0.0
 10
-146.389914912268
 20
163.6508273239908
 30
0.0
 10
-146.7999016446083
 20
163.6013539136535
 30
0.0
 10
-147.3997082473638
 20
163.5332335187098
 30
0.0
 10
-148.1539912584621
 20
163.454803867421
 30
0.0
 10
-149.0586254965111
 20
163.3714252225626
 30
0.0
 10
-150.0734113000003
 20
163.2917924109159
 30
0.0
 10
-151.1867335258731
 20
163.2214294841374
 30
0.0
 10
-152.3457011666439
 20
163.1671316608017
 30
0.0
 10
-153.5368445056348
 20
163.1315220968031
 30
0.0
 10
-154.7038782468442
 20
163.1164992942218
 30
0.0
 10
-155.8326303317631
 20
163.1207902370563
 30
0.0
 10
-157.000803751966
 20
163.1430325086765
 30
0.0
 10
-157.6890066419224
 20
163.170143353252
 30
0.0
 10
-158.0774417165316
 20
163.1854452403686
 30
0.0
  0
LINE
  5
CC
330
1F
100
AcDbEntity
  8
0
  6
Continuous
 62
     7
370
    25
100
AcDbLine
 10
-26.1436930429
 20
175.2449519231
 30
0.0
 11
-40.1436930429
 21
175.2449519231
 31
0.0
  0
LINE
  5
CD
330
1F
100
AcDbEntity
  8
0
  6
Continuous
 62
     7
370
    25
100
AcDbLine
 10
-146.1436930429
 20
175.2449519231
 30
0.0
 11
-160.1436930429
 21
175.2449519231
 31
0.0
  0
LINE
  5
CE
330
1F
100
AcDbEntity
  8
0
  6
Continuous
 62
     1
370
    25
100
AcDbLine
 10
-80.6436930429
 20
164.1449519231
 30
0.0
 11
-80.6436930429
 21
27.6449519231
 31
0.0
  0
LINE
  5
CF
330
1F
100
AcDbEntity
  8
0
  6
Continuous
 62
     1
370
    25
100
AcDbLine
 10
-105.6436930429
 20
164.1449519231
 30
0.0
 11
-105.6436930429
 21
27.6449519231
 31
0.0
  0
ARC
  5
D0
330
1F
100
AcDbEntity
  8
0
  6
Continuous
 62
     7
370
    25
100
AcDbCircle
 10
-1571.7679086538
 20
-86.143244287
 30
0.0
 40
1770.625000000002
100
AcDbArc
 50
0.0
 51
1.9257272513
  0
ARC
  5
D1
330
1F
100
AcDbEntity
  8
0
  6
Continuous
 62
     7
370
    25
100
AcDbCircle
 10
1832.9820913462
 20
-86.143244287
 30
0.0
 40
1770.625000000002
100
AcDbArc
 50
178.0742727487
 51
180.0
  0
LINE
  5
D2
330
1F
100
AcDbEntity
  8
0
  6
Continuous
 62
     7
370
    25
100
AcDbLine
 10
62.3570913462
 20
-86.143244287
 30
0.0
 11
62.3570913462
 21
-111.143244287
 31
0.0
  0
LINE
  5
D3
330
1F
100
AcDbEntity
  8
0
  6
Continuous
 62
     7
370
    25
100
AcDbLine
 10
198.8570913462
 20
-111.143244287
 30
0.0
 11
198.8570913462
 21
-86.143244287
 31
0.0
  0
ARC
  5
D4
330
1F
100
AcDbEntity
  8
0
  6
Continuous
 62
     7
370
    25
100
AcDbCircle
 10
-1571.7679086538
 20
-111.143244287
 30
0.0
 40
1770.625000000002
100
AcDbArc
 50
358.0742727487
 51
0.0
  0
ARC
  5
D5
330
1F
100
AcDbEntity
  8
0
  6
Continuous
 62
     7
370
    25
100
AcDbCircle
 10
1832.9820913462
 20
-111.143244287
 30
0.0
 40
1770.625000000002
100
AcDbArc
 50
180.0
 51
181.9257272513
  0
CIRCLE
  5
D6
330
1F
100
AcDbEntity
  8
0
  6
Continuous
 62
     7
370
    25
100
AcDbCircle
 10
130.6070913462
 20
-38.643244287
 30
0.0
 40
5.000000000000007
  0
CIRCLE
  5
D7
330
1F
100
AcDbEntity
  8
0
  6
Continuous
 62
     7
370
    25
100
AcDbCircle
 10
130.6070913462
 20
-38.643244287
 30
0.0
 40
7.000000000000021
  0
CIRCLE
  5
D8
330
1F
100
AcDbEntity
  8
0
  6
Continuous
 62
     7
370
    25
100
AcDbCircle
 10
130.6070913462
 20
-158.643244287
 30
0.0
 40
7.000000000000028
  0
CIRCLE
  5
D9
330
1F
100
AcDbEntity
  8
0
  6
Continuous
 62
     7
370
    25
100
AcDbCircle
 10
130.6070913462
 20
-158.643244287
 30
0.0
 40
5.0
  0
LINE
  5
DA
330
1F
100
AcDbEntity
  8
0
  6
Continuous
 62
     7
370
    25
100
AcDbLine
 10
63.3570913462
 20
-26.643244287
 30
0.0
 11
197.8570913462
 21
-26.643244287
 31
0.0
  0
LINE
  5
DB
330
1F
100
AcDbEntity
  8
0
  6
Continuous
 62
     7
370
    25
100
AcDbLine
 10
63.3570913462
 20
-170.643244287
 30
0.0
 11
197.8570913462
 21
-170.643244287
 31
0.0
  0
LINE
  5
DC
330
1F
100
AcDbEntity
  8
0
  6
Continuous
 62
     1
370
    25
100
AcDbLine
 10
62.3570913462
 20
-86.143244287
 30
0.0
 11
198.8570913462
 21
-86.143244287
 31
0.0
  0
LINE
  5
DD
330
1F
100
AcDbEntity
  8
0
  6
Continuous
 62
     1
370
    25
100
AcDbLine
 10
62.3570913462
 20
-111.143244287
 30
0.0
 11
198.8570913462
 21
-111.143244287
 31
0.0
  0
INSERT
  5
E9
330
1F
100
AcDbEntity
  8
FORMAT
 62
     7
100
AcDbBlockReference
  2
SW_CENTERMARKSYMBOL_1
 10
130.6070913462
 20
-38.643244287
 30
0.0
  0
INSERT
  5
F5
330
1F
100
AcDbEntity
  8
FORMAT
 62
     7
100
AcDbBlockReference
  2
SW_CENTERMARKSYMBOL_2
 10
130.6070913462
 20
-158.643244287
 30
0.0
  0
SPLINE
  5
F6
330
1F
100
AcDbEntity
  8
0
  6
Continuous
 62
     7
370
    25
100
AcDbSpline
210
0.0
220
0.0
230
1.0
 70
     8
 71
     3
 72
    12
 73
     8
 74
     0
 42
0.00000001
 43
0.00000001
 40
0.0
 40
0.0
 40
0.0
 40
0.0
 40
0.0416964388547643
 40
0.3150133249172293
 40
0.5882689504907188
 40
0.8614457884817631
 40
1.0
 40
1.0
 40
1.0
 40
1.0
 10
300.3078102589744
 20
-35.31595629389806
 30
0.0
 10
299.7100782864004
 20
-35.65738865490611
 30
0.0
 10
295.1942601191528
 20
-38.23688336068
 30
0.0
 10
286.8334199026706
 20
-43.1794875154219
 30
0.0
 10
275.2392468097646
 20
-50.15720866355708
 30
0.0
 10
265.6112863825642
 20
-56.08558750979981
 30
0.0
 10
259.8779371255208
 20
-59.73020436031923
 30
0.0
 10
257.9485716171018
 20
-60.9566773567368
 30
0.0
  0
SPLINE
  5
F7
330
1F
100
AcDbEntity
  8
0
  6
Continuous
 62
     7
370
    25
100
AcDbSpline
210
0.0
220
0.0
230
1.0
 70
     8
 71
     3
 72
    11
 73
     7
 74
     0
 42
0.00000001
 43
0.00000001
 40
0.0
 40
0.0
 40
0.0
 40
0.0
 40
0.2215518238085622
 40
0.4949500730110427
 40
0.7683378401072029
 40
1.0
 40
1.0
 40
1.0
 40
1.0
 10
325.1583406788631
 20
-177.3808176494555
 30
0.0
 10
328.3948983959284
 20
-175.6806370210307
 30
0.0
 10
335.6254165240485
 20
-171.8824081836191
 30
0.0
 10
346.7655614014867
 20
-165.8202984575815
 30
0.0
 10
357.9986322295355
 20
-159.5779401004247
 30
0.0
 10
365.2267455892695
 20
-155.4212989098014
 30
0.0
 10
368.5422204827101
 20
-153.514682504845
 30
0.0
  0
LINE
  5
F8
330
1F
100
AcDbEntity
  8
0
  6
Continuous
 62
     7
370
    25
100
AcDbLine
 10
307.837495926
 20
-58.6414701243
 30
0.0
 11
307.837495926
 21
-49.0124685051
 31
0.0
  0
LINE
  5
F9
330
1F
100
AcDbEntity
  8
0
  6
Continuous
 62
     7
370
    25
100
AcDbLine
 10
293.837495926
 20
-49.0124685051
 30
0.0
 11
293.837495926
 21
-58.858567859
 31
0.0
  0
LINE
  5
FA
330
1F
100
AcDbEntity
  8
0
  6
Continuous
 62
     7
370
    25
100
AcDbLine
 10
317.9805108109
 20
-25.1023530172
 30
0.0
 11
300.3028412812
 21
-35.3074544149
 31
0.0
  0
LINE
  5
FB
330
1F
100
AcDbEntity
  8
0
  6
Continuous
 62
     7
370
    25
100
AcDbLine
 10
368.5472947836
 20
-153.5231241299
 30
0.0
 11
386.2249643133
 21
-143.3180227321
 31
0.0
  0
SPLINE
  5
FC
330
1F
100
AcDbEntity
  8
0
  6
Continuous
 62
     7
370
    25
100
AcDbSpline
210
0.0
220
0.0
230
1.0
 70
     8
 71
     3
 72
    11
 73
     7
 74
     0
 42
0.00000001
 43
0.00000001
 40
0.0
 40
0.0
 40
0.0
 40
0.0
 40
0.2215276185166721
 40
0.4949335083626206
 40
0.7683289158091079
 40
1.0
 40
1.0
 40
1.0
 40
1.0
 10
361.3681342730236
 20
-1.24536221222872
 30
0.0
 10
358.1320208585406
 20
-2.945310090329015
 30
0.0
 10
350.9019473516164
 20
-6.743306805029659
 30
0.0
 10
339.7622444626343
 20
-12.80517922555738
 30
0.0
 10
328.5291380366248
 20
-19.0475567264425
 30
0.0
 10
321.3009897039606
 20
-23.20421824986846
 30
0.0
 10
317.9854797886381
 20
-25.11085489611434
 30
0.0
  0
SPLINE
  5
FD
330
1F
100
AcDbEntity
  8
0
  6
Continuous
 62
     7
370
    25
100
AcDbSpline
210
0.0
220
0.0
230
1.0
 70
     8
 71
     3
 72
    12
 73
     8
 74
     0
 42
0.00000001
 43
0.00000001
 40
0.0
 40
0.0
 40
0.0
 40
0.0
 40
0.0417003197586349
 40
0.3150265849959694
 40
0.5882915876414274
 40
0.8614778000015695
 40
1.0
 40
1.0
 40
1.0
 40
1.0
 10
386.2198900123734
 20
-143.3095811070609
 30
0.0
 10
386.8176571166039
 20
-142.968128703219
 30
0.0
 10
391.3335104855619
 20
-140.3886140773456
 30
0.0
 10
399.6943859356955
 20
-135.4459900155063
 30
0.0
 10
411.2885581413105
 20
-128.4682675085419
 30
0.0
 10
420.9160042963655
 20
-122.5402106052477
 30
0.0
 10
426.6488426110647
 20
-118.8959207163409
 30
0.0
 10
428.5776965080208
 20
-117.6697736722437
 30
0.0
  0
LINE
  5
FE
330
1F
100
AcDbEntity
  8
0
  6
Continuous
 62
     7
370
    25
100
AcDbLine
 10
392.6903096684
 20
-9.8743777993
 30
0.0
 11
392.6903096684
 21
-0.0279817957
 31
0.0
  0
LINE
  5
FF
330
1F
100
AcDbEntity
  8
0
  6
Continuous
 62
     7
370
    25
100
AcDbLine
 10
378.6903096684
 20
-0.0279817957
 30
0.0
 11
378.6903096684
 21
-9.6573176531
 31
0.0
  0
LWPOLYLINE
  5
100
330
1F
100
AcDbEntity
  8
0
  6
Continuous
 62
     7
370
    25
100
AcDbPolyline
 90
      126
 70
   128
 43
0.0
 10
244.799283517
 20
-91.2517078391
 10
244.8593449324
 20
-88.527345986
 10
245.0393774583
 20
-85.8792115416
 10
245.3389263169
 20
-83.3139939233
 10
245.7572348217
 20
-80.8381730934
 10
246.2932462892
 20
-78.4580031902
 10
246.9456067079
 20
-76.1794967295
 10
247.7126681588
 20
-74.0084094162
 10
248.592492978
 20
-71.9502256055
 10
249.5828586517
 20
-70.0101444482
 10
250.6812634303
 20
-68.1930667577
 10
251.884932648
 20
-66.50358263
 10
253.1908257319
 20
-64.9459598485
 10
254.5956438826
 20
-63.5241331037
 10
256.0958384077
 20
-62.2416940533
 10
257.6876196855
 20
-61.1018822495
 10
259.3669667384
 20
-60.107576956
 10
261.1296373901
 20
-59.2612898743
 10
262.9711789813
 20
-58.5651587988
 10
264.8869396184
 20
-58.0209422172
 10
266.8720799236
 20
-57.6300148678
 10
268.9215852602
 20
-57.3933642669
 10
271.0302783999
 20
-57.3115882146
 10
273.1928326008
 20
-57.3848932842
 10
275.4037850634
 20
-57.6130943008
 10
277.6575507297
 20
-57.9956148088
 10
279.9484363922
 20
-58.5314885282
 10
282.2706550748
 20
-59.2193617954
 10
284.6183406516
 20
-60.0574969829
 10
286.9855626651
 20
-61.0437768886
 10
289.366341307
 20
-62.1757100836
 10
291.7546625239
 20
-63.4504372066
 10
294.144493209
 20
-64.8647381862
 10
296.5297964427
 20
-66.4150403754
 10
298.904546742
 20
-68.0974275763
 10
301.2627452815
 20
-69.9076499329
 10
303.5984350471
 20
-71.8411346662
 10
305.9057158836
 20
-73.8929976262
 10
308.1787593995
 20
-76.0580556289
 10
310.4118236896
 20
-78.3308395499
 10
312.5992678396
 20
-80.7056081397
 10
314.7355661759
 20
-83.1763625268
 10
316.8153222233
 20
-85.7368613712
 10
318.8332823376
 20
-88.3806366305
 10
320.7843489765
 20
-91.1010098991
 10
322.6635935762
 20
-93.8911092779
 10
324.4662690019
 20
-96.7438867337
 10
326.1878215389
 20
-99.6521359032
 10
327.8239023962
 20
-102.6085102966
 10
329.3703786914
 20
-105.6055418554
 10
330.8233438913
 20
-108.635659818
 10
332.1791276796
 20
-111.6912098433
 10
333.4343052289
 20
-114.7644733468
 10
334.5857058517
 20
-117.8476869982
 10
335.6304210101
 20
-120.9330623322
 10
336.565811663
 20
-124.012805423
 10
337.3895149324
 20
-127.0791365721
 10
338.0994500723
 20
-130.124309961
 10
338.693823725
 20
-133.1406332175
 10
339.171134451
 20
-136.1204868472
 10
339.530176522
 20
-139.0563434812
 10
339.7700429666
 20
-141.9407868909
 10
339.8901278614
 20
-144.7665307219
 10
339.8901278614
 20
-147.5264369
 10
339.7700429666
 20
-150.2135336627
 10
339.530176522
 20
-152.8210331704
 10
339.171134451
 20
-155.3423486529
 10
338.693823725
 20
-157.7711110487
 10
338.0994500723
 20
-160.101185093
 10
337.3895149324
 20
-162.3266848166
 10
336.565811663
 20
-164.4419884142
 10
335.6304210101
 20
-166.4417524451
 10
334.5857058517
 20
-168.3209253319
 10
333.4343052289
 20
-170.0747601208
 10
332.1791276796
 20
-171.698826473
 10
330.8233438913
 20
-173.1890218558
 10
329.3703786914
 20
-174.5415819064
 10
327.8239023962
 20
-175.7530899407
 10
326.1878215389
 20
-176.8204855843
 10
324.4662690019
 20
-177.7410725032
 10
322.6635935762
 20
-178.5125252148
 10
320.7843489765
 20
-179.1328949627
 10
318.8332823376
 20
-179.6006146391
 10
316.8153222233
 20
-179.9145027435
 10
314.7355661759
 20
-180.0737663672
 10
312.5992678396
 20
-180.0780031966
 10
310.4118236896
 20
-179.9272025291
 10
308.1787593995
 20
-179.6217453001
 10
305.9057158836
 20
-179.1624031213
 10
303.5984350471
 20
-178.5503363307
 10
301.2627452815
 20
-177.7870910623
 10
298.904546742
 20
-176.8745953398
 10
296.5297964427
 20
-175.8151542066
 10
294.144493209
 20
-174.6114439029
 10
291.7546625239
 20
-173.2665051055
 10
289.366341307
 20
-171.7837352465
 10
286.9855626651
 20
-170.1668799312
 10
284.6183406516
 20
-168.4200234765
 10
282.2706550748
 20
-166.5475785934
 10
279.9484363922
 20
-164.5542752402
 10
277.6575507297
 20
-162.4451486741
 10
275.4037850634
 20
-160.2255267318
 10
273.1928326008
 20
-157.9010163712
 10
271.0302783999
 20
-155.477489507
 10
268.9215852602
 20
-152.9610681784
 10
266.8720799236
 20
-150.3581090842
 10
264.8869396184
 20
-147.6751875248
 10
262.9711789813
 20
-144.9190807931
 10
261.1296373901
 20
-142.0967510538
 10
259.3669667384
 20
-139.2153277568
 10
257.6876196855
 20
-136.2820896273
 10
256.0958384077
 20
-133.3044462795
 10
254.5956438826
 20
-130.289919499
 10
253.1908257319
 20
-127.2461242419
 10
251.884932648
 20
-124.1807493992
 10
250.6812634303
 20
-121.1015383739
 10
249.5828586517
 20
-118.0162695203
 10
248.592492978
 20
-114.9327364951
 10
247.7126681588
 20
-111.8587285705
 10
246.9456067079
 20
-108.8020109573
 10
246.2932462892
 20
-105.7703051894
 10
245.7572348217
 20
-102.7712696188
 10
245.3389263169
 20
-99.8124800695
 10
245.0393774583
 20
-96.9014107007
 10
244.8593449324
 20
-94.0454151263
 10
244.799283517
 20
-91.2517078391
  0
SPLINE
  5
101
330
1F
100
AcDbEntity
  8
0
  6
Continuous
 62
     7
370
    25
100
AcDbSpline
210
0.0
220
0.0
230
1.0
 70
     8
 71
     3
 72
    17
 73
    13
 74
     0
 42
0.00000001
 43
0.00000001
 40
0.0
 40
0.0
 40
0.0
 40
0.0
 40
0.1071795503563144
 40
0.2143587024413278
 40
0.3215461011594527
 40
0.4287321914887111
 40
0.5357415298950644
 40
0.6427511984073355
 40
0.7496223008823277
 40
0.8564947309179162
 40
0.963580698211017
 40
1.0
 40
1.0
 40
1.0
 40
1.0
 10
300.8600851901986
 20
-62.90054082616424
 30
0.0
 10
300.4665584618635
 20
-62.87972731795318
 30
0.0
 10
299.6795064675097
 20
-62.83810037887248
 30
0.0
 10
298.5308824630209
 20
-62.6336112711944
 30
0.0
 10
297.448865812265
 20
-62.33314961899634
 30
0.0
 10
296.4614771776182
 20
-61.94077074706092
 30
0.0
 10
295.6009539868182
 20
-61.46931685528486
 30
0.0
 10
294.8874533964615
 20
-60.93442646018909
 30
0.0
 10
294.3424203595027
 20
-60.34844797297637
 30
0.0
 10
293.9906236880686
 20
-59.72639397598859
 30
0.0
 10
293.8306475626329
 20
-59.22372266295755
 30
0.0
 10
293.8542549705019
 20
-58.93275623225022
 30
0.0
 10
293.8602461464158
 20
-58.85891368752574
 30
0.0
  0
SPLINE
  5
102
330
1F
100
AcDbEntity
  8
0
  6
Continuous
 62
     7
370
    25
100
AcDbSpline
210
0.0
220
0.0
230
1.0
 70
     8
 71
     3
 72
    16
 73
    12
 74
     0
 42
0.00000001
 43
0.00000001
 40
0.0
 40
0.0
 40
0.0
 40
0.0
 40
0.1063763214982675
 40
0.2141208056140962
 40
0.322129842351524
 40
0.4301358262591303
 40
0.5376625738657477
 40
0.6451885088621384
 40
0.7522412133073014
 40
0.8592957135211167
 40
1.0
 40
1.0
 40
1.0
 40
1.0
 10
307.8362415812109
 20
-58.64141006713737
 30
0.0
 10
307.8176563243667
 20
-58.88774856636367
 30
0.0
 10
307.7802467757758
 20
-59.38359385566481
 30
0.0
 10
307.477405032113
 20
-60.10940142329493
 30
0.0
 10
306.9949162136581
 20
-60.79169042771721
 30
0.0
 10
306.3363309059482
 20
-61.40710936740523
 30
0.0
 10
305.5196342377121
 20
-61.93203909577679
 30
0.0
 10
304.5748492952749
 20
-62.35630426345242
 30
0.0
 10
303.5236625342645
 20
-62.66201629637008
 30
0.0
 10
302.2827995096088
 20
-62.88105388175399
 30
0.0
 10
301.3754031624875
 20
-62.89348250634374
 30
0.0
 10
300.8600851901986
 20
-62.90054082616424
 30
0.0
  0
LWPOLYLINE
  5
103
330
1F
100
AcDbEntity
  8
0
  6
Continuous
 62
     7
370
    25
100
AcDbPolyline
 90
      114
 70
   128
 43
0.0
 10
253.2138542131
 20
-96.1093361045
 10
253.2743414276
 20
-93.6325235721
 10
253.4556161084
 20
-91.2332037765
 10
253.7571179459
 20
-88.9187928778
 10
254.1779150152
 20
-86.6964445875
 10
254.7167066567
 20
-84.5730280566
 10
255.3718274964
 20
-82.5551066441
 10
256.1412525931
 20
-80.6489176293
 10
257.0226036981
 20
-78.8603529333
 10
258.0131566056
 20
-77.1949409071
 10
259.1098495733
 20
-75.6578292437
 10
260.3092927861
 20
-74.2537690673
 10
261.6077788338
 20
-72.9871002474
 10
263.0012941704
 20
-71.8617379847
 10
264.4855315199
 20
-70.8811607095
 10
266.0559031896
 20
-70.0483993299
 10
267.7075552508
 20
-69.3660278637
 10
269.4353825416
 20
-68.8361554819
 10
271.2340444467
 20
-68.4604199897
 10
273.0979814055
 20
-68.239982764
 10
275.0214320955
 20
-68.1755251637
 10
276.9984512409
 20
-68.2672464234
 10
279.0229279887
 20
-68.514863038
 10
281.0886047975
 20
-68.9176096387
 10
283.1890967786
 20
-69.4742413589
 10
285.3179114315
 20
-70.1830376819
 10
287.4684687123
 20
-71.0418077587
 10
289.6341213716
 20
-72.0478971804
 10
291.8081755011
 20
-73.1981961822
 10
293.9839112242
 20
-74.4891492558
 10
296.1546034664
 20
-75.9167661391
 10
298.3135427423
 20
-77.4766341503
 10
300.4540558944
 20
-79.1639318268
 10
302.5695267193
 20
-80.973443828
 10
304.6534164178
 20
-82.8995770561
 10
306.6992838062
 20
-84.9363779436
 10
308.7008052258
 20
-87.0775508559
 10
310.6517940885
 20
-89.3164775499
 10
312.5462199996
 20
-91.6462376318
 10
314.378227397
 20
-94.0596299466
 10
316.1421536511
 20
-96.5491948369
 10
317.8325465667
 20
-99.1072372003
 10
319.4441812363
 20
-101.7258502745
 10
320.9720761895
 20
-104.3969400765
 10
322.4115087905
 20
-107.1122504209
 10
323.7580298356
 20
-109.863388439
 10
325.0074773054
 20
-112.6418505207
 10
326.1559892295
 20
-115.4390485991
 10
327.2000156233
 20
-118.2463366952
 10
328.136329461
 20
-121.0550376424
 10
328.9620366502
 20
-123.8564699069
 10
329.6745849774
 20
-126.6419744223
 10
330.2717719964
 20
-129.4029413536
 10
330.7517518364
 20
-132.1308367104
 10
331.1130409073
 20
-134.8172287244
 10
331.3545224852
 20
-137.4538139118
 10
331.4754501645
 20
-140.0324427389
 10
331.4754501645
 20
-142.5451448118
 10
331.3545224852
 20
-144.9841535124
 10
331.1130409073
 20
-147.3419300046
 10
330.7517518364
 20
-149.6111865363
 10
330.2717719964
 20
-151.7849089657
 10
329.6745849774
 20
-153.8563784412
 10
328.9620366502
 20
-155.8191921695
 10
328.136329461
 20
-157.6672832058
 10
327.2000156233
 20
-159.3949392066
 10
326.1559892295
 20
-160.9968200863
 10
325.0074773054
 20
-162.4679745228
 10
323.7580298356
 20
-163.8038552621
 10
322.4115087905
 20
-165.0003331733
 10
320.9720761895
 20
-166.0537100118
 10
319.4441812363
 20
-166.9607298502
 10
317.8325465667
 20
-167.7185891422
 10
316.1421536511
 20
-168.324945388
 10
314.378227397
 20
-168.7779243753
 10
312.5462199995
 20
-169.076125972
 10
310.6517940885
 20
-169.2186284541
 10
308.7008052258
 20
-169.2049913545
 10
306.6992838062
 20
-169.0352568247
 10
304.6534164178
 20
-168.7099495044
 10
302.5695267193
 20
-168.2300749
 10
300.4540558944
 20
-167.5971162763
 10
298.3135427423
 20
-166.8130300721
 10
296.1546034664
 20
-165.8802398531
 10
293.9839112242
 20
-164.8016288202
 10
291.8081755011
 20
-163.5805308984
 10
289.6341213716
 20
-162.2207204314
 10
287.4684687123
 20
-160.7264005153
 10
285.3179114315
 20
-159.1021900076
 10
283.1890967785
 20
-157.3531092496
 10
281.0886047975
 20
-155.4845645498
 10
279.0229279887
 20
-153.5023314729
 10
276.9984512409
 20
-151.4125369876
 10
275.0214320955
 20
-149.2216405289
 10
273.0979814055
 20
-146.9364140323
 10
271.2340444467
 20
-144.5639210018
 10
269.4353825416
 20
-142.1114946775
 10
267.7075552508
 20
-139.5867153686
 10
266.0559031896
 20
-136.9973870233
 10
264.4855315199
 20
-134.351513107
 10
263.0012941704
 20
-131.6572718645
 10
261.6077788338
 20
-128.9229910409
 10
260.3092927861
 20
-126.1571221417
 10
259.1098495733
 20
-123.3682143091
 10
258.0131566056
 20
-120.5648878974
 10
257.0226036981
 20
-117.7558078278
 10
256.1412525931
 20
-114.9496568059
 10
255.3718274964
 20
-112.1551084837
 10
254.7167066567
 20
-109.3808006499
 10
254.1779150152
 20
-106.635308531
 10
253.7571179459
 20
-103.9271182858
 10
253.4556161084
 20
-101.2646007751
 10
253.2743414276
 20
-98.6559856881
 10
253.2138542131
 20
-96.1093361045
  0
LWPOLYLINE
  5
104
330
1F
100
AcDbEntity
  8
0
  6
Continuous
 62
     7
370
    25
100
AcDbPolyline
 90
       41
 70
   128
 43
0.0
 10
305.7872433943
 20
-46.1550401137
 10
306.5006148867
 20
-46.6372200806
 10
307.0745415954
 20
-47.1778865468
 10
307.4948915401
 20
-47.7637265093
 10
307.7513143102
 20
-48.3803146442
 10
307.837495926
 20
-49.0124685051
 10
307.7513143102
 20
-49.644622366
 10
307.4948915401
 20
-50.2612105008
 10
307.0745415954
 20
-50.8470504634
 10
306.5006148867
 20
-51.3877169295
 10
305.7872433943
 20
-51.8698968965
 10
304.9519926921
 20
-52.2817174931
 10
304.0154294242
 20
-52.6130383297
 10
303.0006148867
 20
-52.8557011876
 10
301.9325371813
 20
-53.0037309019
 10
300.837495926
 20
-53.0534824897
 10
299.7424546708
 20
-53.0037309019
 10
298.6743769654
 20
-52.8557011876
 10
297.6595624279
 20
-52.6130383297
 10
296.72299916
 20
-52.2817174931
 10
295.8877484577
 20
-51.8698968965
 10
295.1743769654
 20
-51.3877169295
 10
294.6004502567
 20
-50.8470504634
 10
294.180100312
 20
-50.2612105008
 10
293.9236775419
 20
-49.644622366
 10
293.837495926
 20
-49.0124685051
 10
293.9236775419
 20
-48.3803146442
 10
294.180100312
 20
-47.7637265093
 10
294.6004502567
 20
-47.1778865468
 10
295.1743769654
 20
-46.6372200806
 10
295.8877484577
 20
-46.1550401137
 10
296.72299916
 20
-45.743219517
 10
297.6595624279
 20
-45.4118986805
 10
298.6743769654
 20
-45.1692358226
 10
299.7424546708
 20
-45.0212061083
 10
300.837495926
 20
-44.9714545205
 10
301.9325371813
 20
-45.0212061083
 10
303.0006148867
 20
-45.1692358226
 10
304.0154294242
 20
-45.4118986805
 10
304.9519926921
 20
-45.743219517
 10
305.7872433943
 20
-46.1550401137
  0
LWPOLYLINE
  5
105
330
1F
100
AcDbEntity
  8
0
  6
Continuous
 62
     7
370
    25
100
AcDbPolyline
 90
       35
 70
   128
 43
0.0
 10
304.373029832
 20
-46.9714482255
 10
304.962483299
 20
-47.3812369666
 10
305.4114652685
 20
-47.8465753413
 10
305.7046861978
 20
-48.3516168093
 10
305.8321608001
 20
-48.8791627892
 10
305.7895480804
 20
-49.4112483354
 10
305.578299164
 20
-49.9297539127
 10
305.2056078793
 20
-50.4170224357
 10
304.684165781
 20
-50.8564605591
 10
304.0317299543
 20
-51.2331037448
 10
303.2705183189
 20
-51.5341258607
 10
302.426453024
 20
-51.7492759598
 10
301.5282777008
 20
-51.8712273634
 10
300.6065786328
 20
-51.8958271628
 10
299.6927431763
 20
-51.8222376414
 10
298.8178909017
 20
-51.6529648019
 10
298.0118138539
 20
-51.393773028
 10
297.3019620201
 20
-51.0534887846
 10
296.7125085531
 20
-50.6437000436
 10
296.2635265836
 20
-50.1783616689
 10
295.9703056542
 20
-49.6733202009
 10
295.842831052
 20
-49.145774221
 10
295.8854437717
 20
-48.6136886748
 10
296.0966926881
 20
-48.0951830974
 10
296.4693839728
 20
-47.6079145745
 10
296.9908260711
 20
-47.168476451
 10
297.6432618978
 20
-46.7918332654
 10
298.4044735332
 20
-46.4908111495
 10
299.2485388281
 20
-46.2756610504
 10
300.1467141513
 20
-46.1537096468
 10
301.0684132193
 20
-46.1291098473
 10
301.9822486758
 20
-46.2026993688
 10
302.8571009504
 20
-46.3719722082
 10
303.6631779982
 20
-46.6311639821
 10
304.373029832
 20
-46.9714482255
  0
ARC
  5
106
330
1F
100
AcDbEntity
  8
0
  6
Continuous
 62
     7
370
    25
100
AcDbCircle
 10
373.2082136382
 20
-25.4694756436
 30
0.0
 40
26.97454105118754
100
AcDbArc
 50
77.8657148849
 51
116.0498982194
  0
LWPOLYLINE
  5
107
330
1F
100
AcDbEntity
  8
0
  6
Continuous
 62
     7
370
    25
100
AcDbPolyline
 90
       49
 70
   128
 43
0.0
 10
392.6903096684
 20
-4.1790345031
 10
393.5780390147
 20
-4.6690531554
 10
395.9678696999
 20
-6.083354135
 10
398.3531729336
 20
-7.6336563242
 10
400.7279232329
 20
-9.3160435251
 10
403.0861217724
 20
-11.1262658816
 10
405.4218115379
 20
-13.059750615
 10
407.7290923745
 20
-15.111613575
 10
410.0021358904
 20
-17.2766715777
 10
412.2352001805
 20
-19.5494554986
 10
414.4226443305
 20
-21.9242240885
 10
416.5589426667
 20
-24.3949784755
 10
418.6386987142
 20
-26.9554773199
 10
420.6566588285
 20
-29.5992525793
 10
422.6077254674
 20
-32.3196258478
 10
424.4869700671
 20
-35.1097252266
 10
426.2896454928
 20
-37.9625026825
 10
428.0111980298
 20
-40.870751852
 10
429.647278887
 20
-43.8271262453
 10
431.1937551823
 20
-46.8241578042
 10
432.6467203822
 20
-49.8542757667
 10
434.0025041705
 20
-52.9098257921
 10
435.2576817198
 20
-55.9830892956
 10
436.4090823426
 20
-59.066302947
 10
437.453797501
 20
-62.151678281
 10
438.3891881539
 20
-65.2314213717
 10
439.2128914233
 20
-68.2977525209
 10
439.9228265632
 20
-71.3429259098
 10
440.5172002158
 20
-74.3592491663
 10
440.9945109419
 20
-77.339102796
 10
441.3535530129
 20
-80.27495943
 10
441.5934194575
 20
-83.1594028397
 10
441.7135043522
 20
-85.9851466707
 10
441.7135043522
 20
-88.7450528488
 10
441.5934194575
 20
-91.4321496115
 10
441.3535530129
 20
-94.0396491191
 10
440.9945109419
 20
-96.5609646017
 10
440.5172002158
 20
-98.9897269974
 10
439.9228265632
 20
-101.3198010418
 10
439.2128914233
 20
-103.5453007654
 10
438.3891881539
 20
-105.6606043629
 10
437.453797501
 20
-107.6603683939
 10
436.4090823426
 20
-109.5395412807
 10
435.2576817198
 20
-111.2933760696
 10
434.0025041705
 20
-112.9174424218
 10
432.6467203822
 20
-114.4076378046
 10
431.1937551823
 20
-115.7601978552
 10
429.647278887
 20
-116.9717058895
 10
428.5878230768
 20
-117.6858480091
  0
SPLINE
  5
108
330
1F
100
AcDbEntity
  8
0
  6
Continuous
 62
     7
370
    25
100
AcDbSpline
210
0.0
220
0.0
230
1.0
 70
     8
 71
     3
 72
    17
 73
    13
 74
     0
 42
0.00000001
 43
0.00000001
 40
0.0
 40
0.0
 40
0.0
 40
0.0
 40
0.1066857447655307
 40
0.2133686405169562
 40
0.3200813374087909
 40
0.4267907278339905
 40
0.5329546533367144
 40
0.639119223983082
 40
0.7449388657146059
 40
0.8507621114814303
 40
0.9570847017629575
 40
1.0
 40
1.0
 40
1.0
 40
1.0
 10
385.7569879769379
 20
-13.70156218202408
 30
0.0
 10
385.3639897051639
 20
-13.67060606832807
 30
0.0
 10
384.5780036565293
 20
-13.60869466761076
 30
0.0
 10
383.4285056873571
 20
-13.38237352169808
 30
0.0
 10
382.3436331100941
 20
-13.0671275858867
 30
0.0
 10
381.3527591504725
 20
-12.6680758213341
 30
0.0
 10
380.4882619207997
 20
-12.19872529487556
 30
0.0
 10
379.7703408796774
 20
-11.67511136564689
 30
0.0
 10
379.219648336512
 20
-11.10916154168381
 30
0.0
 10
378.8582428094766
 20
-10.51512660435801
 30
0.0
 10
378.6887065717835
 20
-10.02564471586813
 30
0.0
 10
378.7086786440361
 20
-9.73974784372994
 30
0.0
 10
378.714421873491
 20
-9.657534475163557
 30
0.0
  0
SPLINE
  5
109
330
1F
100
AcDbEntity
  8
0
  6
Continuous
 62
     7
370
    25
100
AcDbSpline
210
0.0
220
0.0
230
1.0
 70
     8
 71
     3
 72
    16
 73
    12
 74
     0
 42
0.00000001
 43
0.00000001
 40
0.0
 40
0.0
 40
0.0
 40
0.0
 40
0.1027303721442709
 40
0.210775065870928
 40
0.3186909106393824
 40
0.4266054778144236
 40
0.5341339376710004
 40
0.6416641905188599
 40
0.7492179826927093
 40
0.8567745808858556
 40
1.0
 40
1.0
 40
1.0
 40
1.0
 10
392.6856220807039
 20
-9.874169960785592
 30
0.0
 10
392.6697728515172
 20
-10.09953180047127
 30
0.0
 10
392.6372545002633
 20
-10.56191362205984
 30
0.0
 10
392.3439527384126
 20
-11.23553426099903
 30
0.0
 10
391.8693493129877
 20
-11.87008748344966
 30
0.0
 10
391.2196773717902
 20
-12.43536691424008
 30
0.0
 10
390.4127503916841
 20
-12.9102660859592
 30
0.0
 10
389.4767698688424
 20
-13.28678111993793
 30
0.0
 10
388.4327615819325
 20
-13.54829162453586
 30
0.0
 10
387.1907425341748
 20
-13.72346100219125
 30
0.0
 10
386.2781712805632
 20
-13.70952260968766
 30
0.0
 10
385.7569879769379
 20
-13.70156218202408
 30
0.0
  0
LWPOLYLINE
  5
10A
330
1F
100
AcDbEntity
  8
0
  6
Continuous
 62
     7
370
    25
100
AcDbPolyline
 90
       41
 70
   128
 43
0.0
 10
380.7405622001
 20
-2.8854101871
 10
380.0271907078
 20
-2.4032302202
 10
379.4532639991
 20
-1.862563754
 10
379.0329140544
 20
-1.2767237915
 10
378.7764912843
 20
-0.6601356566
 10
378.6903096684
 20
-0.0279817957
 10
378.7764912843
 20
0.6041720652
 10
379.0329140544
 20
1.2207602
 10
379.4532639991
 20
1.8066001626
 10
380.0271907078
 20
2.3472666287
 10
380.7405622001
 20
2.8294465957
 10
381.5758129024
 20
3.2412671923
 10
382.5123761703
 20
3.5725880289
 10
383.5271907078
 20
3.8152508868
 10
384.5952684131
 20
3.9632806011
 10
385.6903096684
 20
4.0130321889
 10
386.7853509237
 20
3.9632806011
 10
387.8534286291
 20
3.8152508868
 10
388.8682431666
 20
3.5725880289
 10
389.8048064345
 20
3.2412671923
 10
390.6400571367
 20
2.8294465957
 10
391.3534286291
 20
2.3472666287
 10
391.9273553377
 20
1.8066001626
 10
392.3477052825
 20
1.2207602
 10
392.6041280526
 20
0.6041720652
 10
392.6903096684
 20
-0.0279817957
 10
392.6041280526
 20
-0.6601356566
 10
392.3477052825
 20
-1.2767237915
 10
391.9273553377
 20
-1.862563754
 10
391.3534286291
 20
-2.4032302202
 10
390.6400571367
 20
-2.8854101871
 10
389.8048064345
 20
-3.2972307838
 10
388.8682431666
 20
-3.6285516203
 10
387.8534286291
 20
-3.8712144782
 10
386.7853509237
 20
-4.0192441925
 10
385.6903096684
 20
-4.0689957803
 10
384.5952684131
 20
-4.0192441925
 10
383.5271907078
 20
-3.8712144782
 10
382.5123761703
 20
-3.6285516203
 10
381.5758129024
 20
-3.2972307838
 10
380.7405622001
 20
-2.8854101871
  0
LWPOLYLINE
  5
10B
330
1F
100
AcDbEntity
  8
0
  6
Continuous
 62
     7
370
    25
100
AcDbPolyline
 90
       35
 70
   128
 43
0.0
 10
382.1547757625
 20
-2.0690020753
 10
381.5653222954
 20
-1.6592133342
 10
381.116340326
 20
-1.1938749595
 10
380.8231193966
 20
-0.6888334915
 10
380.6956447944
 20
-0.1612875116
 10
380.7382575141
 20
0.3707980346
 10
380.9495064305
 20
0.8893036119
 10
381.3221977152
 20
1.3765721349
 10
381.8436398135
 20
1.8160102583
 10
382.4960756402
 20
2.192653444
 10
383.2572872756
 20
2.4936755599
 10
384.1013525705
 20
2.708825659
 10
384.9995278937
 20
2.8307770626
 10
385.9212269617
 20
2.855376862
 10
386.8350624182
 20
2.7817873406
 10
387.7099146928
 20
2.6125145011
 10
388.5159917405
 20
2.3533227272
 10
389.2258435744
 20
2.0130384838
 10
389.8152970414
 20
1.6032497428
 10
390.2642790109
 20
1.1379113681
 10
390.5574999402
 20
0.6328699001
 10
390.6849745424
 20
0.1053239202
 10
390.6423618228
 20
-0.426761626
 10
390.4311129064
 20
-0.9452672034
 10
390.0584216217
 20
-1.4325357263
 10
389.5369795233
 20
-1.8719738498
 10
388.8845436967
 20
-2.2486170354
 10
388.1233320613
 20
-2.5496391513
 10
387.2792667663
 20
-2.7647892504
 10
386.3810914432
 20
-2.886740654
 10
385.4593923752
 20
-2.9113404535
 10
384.5455569187
 20
-2.837750932
 10
383.6707046441
 20
-2.6684780926
 10
382.8646275963
 20
-2.4092863187
 10
382.1547757625
 20
-2.0690020753
  0
LWPOLYLINE
  5
10C
330
1F
100
AcDbEntity
  8
0
  6
Continuous
 62
     1
370
    25
100
AcDbPolyline
 90
       65
 70
   128
 43
0.0
 10
300.3028327222
 20
-35.3074593559
 10
300.7281327871
 20
-35.0679831116
 10
302.4920844877
 20
-34.1962807736
 10
304.3354266168
 20
-33.474292379
 10
306.2535763355
 20
-32.9038129047
 10
308.2417648213
 20
-32.4862606525
 10
310.2950491244
 20
-32.2226737231
 10
312.4083244565
 20
-32.1137074352
 10
314.5763368821
 20
-32.1596326961
 10
316.7936963808
 20
-32.3603353284
 10
319.0548902474
 20
-32.7153163537
 10
321.3542967977
 20
-33.2236932332
 10
323.6861993448
 20
-33.884202062
 10
326.0448004115
 20
-34.695200711
 10
328.4242361439
 20
-35.6546729098
 10
330.8185908899
 20
-36.7602332593
 10
333.2219119063
 20
-38.0091331624
 10
335.6282241585
 20
-39.3982676569
 10
338.0315451749
 20
-40.9241831359
 10
340.4258999209
 20
-42.5830859328
 10
342.8053356533
 20
-44.3708517541
 10
345.16393672
 20
-46.2830359321
 10
347.4958392671
 20
-48.3148844758
 10
349.7952458174
 20
-50.4613458894
 10
352.0564396841
 20
-52.7170837318
 10
354.2737991827
 20
-55.0764898832
 10
356.4418116083
 20
-57.5336984882
 10
358.5550869404
 20
-60.0826005391
 10
360.6083712435
 20
-62.7168590636
 10
362.5965597293
 20
-65.4299248802
 10
364.514709448
 20
-68.2150528796
 10
366.3580515771
 20
-71.0653187948
 10
368.1220032777
 20
-73.9736364158
 10
369.802179088
 20
-76.9327752065
 10
371.394401826
 20
-79.9353782818
 10
372.8947129753
 20
-82.9739806974
 10
374.2993825259
 20
-86.0410280087
 10
375.604918248
 20
-89.128895053
 10
376.8080743741
 20
-92.2299049063
 10
377.9058596684
 20
-95.3363479695
 10
378.8955448638
 20
-98.4405011356
 10
379.7746694469
 20
-101.5346469908
 10
380.5410477756
 20
-104.611093001
 10
381.1927745124
 20
-107.6621906366
 10
381.7282293622
 20
-110.6803543882
 10
382.1460810996
 20
-113.6580806252
 10
382.4452908796
 20
-116.5879662509
 10
382.6251148194
 20
-119.4627271082
 10
382.6851058484
 20
-122.2752160884
 10
382.6251148194
 20
-125.0184409009
 10
382.4452908796
 20
-127.6855814565
 10
382.1460810996
 20
-130.2700068236
 10
381.7282293622
 20
-132.7652917136
 10
381.1927745124
 20
-135.165232455
 10
380.5410477756
 20
-137.4638624169
 10
379.7746694469
 20
-139.6554668432
 10
378.8955448638
 20
-141.73459706
 10
377.9058596684
 20
-143.6960840218
 10
376.8080743741
 20
-145.5350511631
 10
375.604918248
 20
-147.2469265218
 10
374.2993825259
 20
-148.827454106
 10
372.8947129753
 20
-150.2727044752
 10
371.394401826
 20
-151.5790845091
 10
369.802179088
 20
-152.7433463413
 10
368.5473297864
 20
-153.5231039232
  0
LWPOLYLINE
  5
10D
330
1F
100
AcDbEntity
  8
0
  6
Continuous
 62
     1
370
    25
100
AcDbPolyline
 90
       65
 70
   128
 43
0.0
 10
317.9805108109
 20
-25.1023530172
 10
318.4058023167
 20
-24.8628817138
 10
320.1697540173
 20
-23.9911793758
 10
322.0130961465
 20
-23.2691909812
 10
323.9312458652
 20
-22.6987115069
 10
325.919434351
 20
-22.2811592547
 10
327.9727186541
 20
-22.0175723253
 10
330.0859939862
 20
-21.9086060374
 10
332.2540064118
 20
-21.9545312983
 10
334.4713659104
 20
-22.1552339306
 10
336.732559777
 20
-22.5102149559
 10
339.0319663274
 20
-23.0185918355
 10
341.3638688745
 20
-23.6791006642
 10
343.7224699412
 20
-24.4900993132
 10
346.1019056736
 20
-25.449571512
 10
348.4962604196
 20
-26.5551318616
 10
350.899581436
 20
-27.8040317646
 10
353.3058936881
 20
-29.1931662592
 10
355.7092147045
 20
-30.7190817381
 10
358.1035694505
 20
-32.377984535
 10
360.483005183
 20
-34.1657503563
 10
362.8416062496
 20
-36.0779345343
 10
365.1735087967
 20
-38.109783078
 10
367.4729153471
 20
-40.2562444916
 10
369.7341092137
 20
-42.511982334
 10
371.9514687124
 20
-44.8713884854
 10
374.119481138
 20
-47.3285970904
 10
376.2327564701
 20
-49.8774991413
 10
378.2860407731
 20
-52.5117576659
 10
380.274229259
 20
-55.2248234824
 10
382.1923789776
 20
-58.0099514818
 10
384.0357211068
 20
-60.860217397
 10
385.7996728074
 20
-63.768535018
 10
387.4798486177
 20
-66.7276738087
 10
389.0720713557
 20
-69.730276884
 10
390.572382505
 20
-72.7688792996
 10
391.9770520556
 20
-75.8359266109
 10
393.2825877777
 20
-78.9237936552
 10
394.4857439037
 20
-82.0248035085
 10
395.5835291981
 20
-85.1312465717
 10
396.5732143935
 20
-88.2353997378
 10
397.4523389766
 20
-91.329545593
 10
398.2187173052
 20
-94.4059916032
 10
398.8704440421
 20
-97.4570892388
 10
399.4058988918
 20
-100.4752529904
 10
399.8237506293
 20
-103.4529792274
 10
400.1229604093
 20
-106.3828648532
 10
400.3027843491
 20
-109.2576257104
 10
400.3627753781
 20
-112.0701146906
 10
400.3027843491
 20
-114.8133395031
 10
400.1229604093
 20
-117.4804800587
 10
399.8237506293
 20
-120.0649054258
 10
399.4058988918
 20
-122.5601903158
 10
398.8704440421
 20
-124.9601310572
 10
398.2187173052
 20
-127.2587610191
 10
397.4523389766
 20
-129.4503654454
 10
396.5732143935
 20
-131.5294956622
 10
395.5835291981
 20
-133.490982624
 10
394.4857439037
 20
-135.3299497653
 10
393.2825877777
 20
-137.041825124
 10
391.9770520556
 20
-138.6223527082
 10
390.572382505
 20
-140.0676030774
 10
389.0720713557
 20
-141.3739831114
 10
387.4798486177
 20
-142.5382449435
 10
386.2249643133
 20
-143.3180227321
  0
ENDSEC
  0
SECTION
  2
OBJECTS
  0
DICTIONARY
  5
C
330
0
100
AcDbDictionary
281
     1
  3
ACAD_GROUP
350
D
  3
ACAD_LAYOUT
350
1A
  3
ACAD_MLINESTYLE
350
17
  3
ACAD_PLOTSETTINGS
350
19
  3
ACAD_PLOTSTYLENAME
350
E
  3
ACAD_SCALELIST
350
47
  3
DWGPROPS
350
10E
  0
DICTIONARY
  5
D
102
{ACAD_REACTORS
330
C
102
}
330
C
100
AcDbDictionary
281
     1
  0
DICTIONARY
  5
1A
102
{ACAD_REACTORS
330
C
102
}
330
C
100
AcDbDictionary
281
     1
  3
Layout1
350
1E
  3
Layout2
350
26
  3
Model
350
22
  0
DICTIONARY
  5
17
102
{ACAD_REACTORS
330
C
102
}
330
C
100
AcDbDictionary
281
     1
  3
Standard
350
18
  0
DICTIONARY
  5
19
102
{ACAD_REACTORS
330
C
102
}
330
C
100
AcDbDictionary
281
     1
  0
ACDBDICTIONARYWDFLT
  5
E
102
{ACAD_REACTORS
330
C
102
}
330
C
100
AcDbDictionary
281
     1
  3
Normal
350
F
100
AcDbDictionaryWithDefault
340
F
  0
DICTIONARY
  5
47
102
{ACAD_REACTORS
330
C
102
}
330
C
100
AcDbDictionary
281
     1
  3
A0
350
48
  3
A1
350
49
  3
A2
350
4A
  3
A3
350
4B
  3
A4
350
4C
  3
A5
350
4D
  3
A6
350
4E
  3
A7
350
4F
  3
A8
350
50
  3
A9
350
51
  3
B0
350
52
  3
B1
350
53
  3
B2
350
54
  3
B3
350
55
  3
B4
350
56
  3
B5
350
57
  3
B6
350
58
  3
B7
350
59
  3
B8
350
5A
  3
B9
350
5B
  3
C0
350
5C
  3
C1
350
5D
  3
C2
350
5E
  3
C3
350
5F
  3
C4
350
60
  3
C5
350
61
  3
C6
350
62
  3
C7
350
63
  3
C8
350
64
  3
C9
350
65
  3
D0
350
66
  3
D1
350
67
  3
D2
350
68
  0
XRECORD
  5
10E
102
{ACAD_REACTORS
330
C
102
}
330
C
100
AcDbXrecord
280
     1
  1
DWGPROPS COOKIE
  2

  3

  4

  6

  7

  8
b.kav
  9

300
=
301
=
302
=
303
=
304
=
305
=
306
=
307
=
308
=
309
=
 40
0.0
 41
2459935.585196088
 42
2459935.585196273
  1

 90
        0
  0
LAYOUT
  5
1E
102
{ACAD_REACTORS
330
1A
102
}
330
1A
100
AcDbPlotSettings
  1

  2
none_device
  4

  6

 40
0.0
 41
0.0
 42
0.0
 43
0.0
 44
0.0
 45
0.0
 46
0.0
 47
0.0
 48
0.0
 49
0.0
140
0.0
141
0.0
142
1.0
143
1.0
 70
   688
 72
     1
 73
     0
 74
     5
  7

 75
    16
147
1.0
148
0.0
149
0.0
100
AcDbLayout
  1
Layout1
 70
     1
 71
     1
 10
0.0
 20
0.0
 11
420.0
 21
297.0
 12
0.0
 22
0.0
 32
0.0
 14
1.0000000000E+20
 24
1.0000000000E+20
 34
1.0000000000E+20
 15
-1.0000000000E+20
 25
-1.0000000000E+20
 35
-1.0000000000E+20
146
0.0
 13
0.0
 23
0.0
 33
0.0
 16
1.0
 26
0.0
 36
0.0
 17
0.0
 27
1.0
 37
0.0
 76
     0
330
1B
  0
LAYOUT
  5
26
102
{ACAD_REACTORS
330
1A
102
}
330
1A
100
AcDbPlotSettings
  1

  2
none_device
  4

  6

 40
0.0
 41
0.0
 42
0.0
 43
0.0
 44
0.0
 45
0.0
 46
0.0
 47
0.0
 48
0.0
 49
0.0
140
0.0
141
0.0
142
1.0
143
1.0
 70
   688
 72
     1
 73
     0
 74
     5
  7

 75
    16
147
1.0
148
0.0
149
0.0
100
AcDbLayout
  1
Layout2
 70
     1
 71
     2
 10
0.0
 20
0.0
 11
0.0
 21
0.0
 12
0.0
 22
0.0
 32
0.0
 14
0.0
 24
0.0
 34
0.0
 15
0.0
 25
0.0
 35
0.0
146
0.0
 13
0.0
 23
0.0
 33
0.0
 16
1.0
 26
0.0
 36
0.0
 17
0.0
 27
1.0
 37
0.0
 76
     0
330
23
  0
LAYOUT
  5
22
102
{ACAD_REACTORS
330
1A
102
}
330
1A
100
AcDbPlotSettings
  1

  2
none_device
  4
Letter_(8.50_x_11.00_Inches)
  6

 40
6.35
 41
6.35
 42
6.35000508
 43
6.35000508
 44
215.9
 45
279.4
 46
0.0
 47
0.0
 48
0.0
 49
0.0
140
0.0
141
0.0
142
1.0
143
1.0
 70
  1712
 72
     1
 73
     0
 74
     0
  7

 75
     0
147
1.0
148
0.0
149
0.0
100
AcDbLayout
  1
Model
 70
     1
 71
     0
 10
0.0
 20
0.0
 11
279.4
 21
215.9
 12
0.0
 22
0.0
 32
0.0
 14
0.0
 24
0.0
 34
0.0
 15
279.4
 25
215.9
 35
0.0
146
0.0
 13
0.0
 23
0.0
 33
0.0
 16
1.0
 26
0.0
 36
0.0
 17
0.0
 27
1.0
 37
0.0
 76
     0
330
1F
331
29
  0
MLINESTYLE
  5
18
102
{ACAD_REACTORS
330
17
102
}
330
17
100
AcDbMlineStyle
  2
Standard
 70
     0
  3

 62
   256
 51
90.0
 52
90.0
 71
     2
 49
0.5
 62
   256
  6
BYLAYER
 49
-0.5
 62
   256
  6
BYLAYER
  0
ACDBPLACEHOLDER
  5
F
102
{ACAD_REACTORS
330
E
102
}
330
E
  0
SCALE
  5
48
102
{ACAD_REACTORS
330
47
102
}
330
47
100
AcDbScale
 70
     0
300
1:1
140
1.0
141
1.0
290
     1
  0
SCALE
  5
49
102
{ACAD_REACTORS
330
47
102
}
330
47
100
AcDbScale
 70
     0
300
1:2
140
1.0
141
2.0
290
     0
  0
SCALE
  5
4A
102
{ACAD_REACTORS
330
47
102
}
330
47
100
AcDbScale
 70
     0
300
1:4
140
1.0
141
4.0
290
     0
  0
SCALE
  5
4B
102
{ACAD_REACTORS
330
47
102
}
330
47
100
AcDbScale
 70
     0
300
1:5
140
1.0
141
5.0
290
     0
  0
SCALE
  5
4C
102
{ACAD_REACTORS
330
47
102
}
330
47
100
AcDbScale
 70
     0
300
1:8
140
1.0
141
8.0
290
     0
  0
SCALE
  5
4D
102
{ACAD_REACTORS
330
47
102
}
330
47
100
AcDbScale
 70
     0
300
1:10
140
1.0
141
10.0
290
     0
  0
SCALE
  5
4E
102
{ACAD_REACTORS
330
47
102
}
330
47
100
AcDbScale
 70
     0
300
1:16
140
1.0
141
16.0
290
     0
  0
SCALE
  5
4F
102
{ACAD_REACTORS
330
47
102
}
330
47
100
AcDbScale
 70
     0
300
1:20
140
1.0
141
20.0
290
     0
  0
SCALE
  5
50
102
{ACAD_REACTORS
330
47
102
}
330
47
100
AcDbScale
 70
     0
300
1:30
140
1.0
141
30.0
290
     0
  0
SCALE
  5
51
102
{ACAD_REACTORS
330
47
102
}
330
47
100
AcDbScale
 70
     0
300
1:40
140
1.0
141
40.0
290
     0
  0
SCALE
  5
52
102
{ACAD_REACTORS
330
47
102
}
330
47
100
AcDbScale
 70
     0
300
1:50
140
1.0
141
50.0
290
     0
  0
SCALE
  5
53
102
{ACAD_REACTORS
330
47
102
}
330
47
100
AcDbScale
 70
     0
300
1:100
140
1.0
141
100.0
290
     0
  0
SCALE
  5
54
102
{ACAD_REACTORS
330
47
102
}
330
47
100
AcDbScale
 70
     0
300
2:1
140
2.0
141
1.0
290
     0
  0
SCALE
  5
55
102
{ACAD_REACTORS
330
47
102
}
330
47
100
AcDbScale
 70
     0
300
4:1
140
4.0
141
1.0
290
     0
  0
SCALE
  5
56
102
{ACAD_REACTORS
330
47
102
}
330
47
100
AcDbScale
 70
     0
300
8:1
140
8.0
141
1.0
290
     0
  0
SCALE
  5
57
102
{ACAD_REACTORS
330
47
102
}
330
47
100
AcDbScale
 70
     0
300
10:1
140
10.0
141
1.0
290
     0
  0
SCALE
  5
58
102
{ACAD_REACTORS
330
47
102
}
330
47
100
AcDbScale
 70
     0
300
100:1
140
100.0
141
1.0
290
     0
  0
SCALE
  5
59
102
{ACAD_REACTORS
330
47
102
}
330
47
100
AcDbScale
 70
     0
300
1/128" = 1'-0"
140
0.0078125
141
12.0
290
     0
  0
SCALE
  5
5A
102
{ACAD_REACTORS
330
47
102
}
330
47
100
AcDbScale
 70
     0
300
1/64" = 1'-0"
140
0.015625
141
12.0
290
     0
  0
SCALE
  5
5B
102
{ACAD_REACTORS
330
47
102
}
330
47
100
AcDbScale
 70
     0
300
1/32" = 1'-0"
140
0.03125
141
12.0
290
     0
  0
SCALE
  5
5C
102
{ACAD_REACTORS
330
47
102
}
330
47
100
AcDbScale
 70
     0
300
1/16" = 1'-0"
140
0.0625
141
12.0
290
     0
  0
SCALE
  5
5D
102
{ACAD_REACTORS
330
47
102
}
330
47
100
AcDbScale
 70
     0
300
3/32" = 1'-0"
140
0.09375
141
12.0
290
     0
  0
SCALE
  5
5E
102
{ACAD_REACTORS
330
47
102
}
330
47
100
AcDbScale
 70
     0
300
1/8" = 1'-0"
140
0.125
141
12.0
290
     0
  0
SCALE
  5
5F
102
{ACAD_REACTORS
330
47
102
}
330
47
100
AcDbScale
 70
     0
300
3/16" = 1'-0"
140
0.1875
141
12.0
290
     0
  0
SCALE
  5
60
102
{ACAD_REACTORS
330
47
102
}
330
47
100
AcDbScale
 70
     0
300
1/4" = 1'-0"
140
0.25
141
12.0
290
     0
  0
SCALE
  5
61
102
{ACAD_REACTORS
330
47
102
}
330
47
100
AcDbScale
 70
     0
300
3/8" = 1'-0"
140
0.375
141
12.0
290
     0
  0
SCALE
  5
62
102
{ACAD_REACTORS
330
47
102
}
330
47
100
AcDbScale
 70
     0
300
1/2" = 1'-0"
140
0.5
141
12.0
290
     0
  0
SCALE
  5
63
102
{ACAD_REACTORS
330
47
102
}
330
47
100
AcDbScale
 70
     0
300
3/4" = 1'-0"
140
0.75
141
12.0
290
     0
  0
SCALE
  5
64
102
{ACAD_REACTORS
330
47
102
}
330
47
100
AcDbScale
 70
     0
300
1" = 1'-0"
140
1.0
141
12.0
290
     0
  0
SCALE
  5
65
102
{ACAD_REACTORS
330
47
102
}
330
47
100
AcDbScale
 70
     0
300
1-1/2" = 1'-0"
140
1.5
141
12.0
290
     0
  0
SCALE
  5
66
102
{ACAD_REACTORS
330
47
102
}
330
47
100
AcDbScale
 70
     0
300
3" = 1'-0"
140
3.0
141
12.0
290
     0
  0
SCALE
  5
67
102
{ACAD_REACTORS
330
47
102
}
330
47
100
AcDbScale
 70
     0
300
6" = 1'-0"
140
6.0
141
12.0
290
     0
  0
SCALE
  5
68
102
{ACAD_REACTORS
330
47
102
}
330
47
100
AcDbScale
 70
     0
300
1'-0" = 1'-0"
140
12.0
141
12.0
290
     0
  0
ENDSEC
  0
EOF
